ISO-10303-21;
HEADER;
FILE_DESCRIPTION (( 'STEP AP203' ),
    '1' );
FILE_NAME ('342262.step',
    '2021-12-03T06:48:38',
    ( '' ),
    ( '' ),
    'SwSTEP 2.0',
    'SolidWorks 2019',
    '' );
FILE_SCHEMA (( 'CONFIG_CONTROL_DESIGN' ));
ENDSEC;

DATA;
#1 = CIRCLE ( 'NONE', #99, 3.649999999999998135 ) ;
#2 = DIRECTION ( 'NONE',  ( 4.275831445896959482E-31, 1.000000000000000000, 1.224646799147353454E-16 ) ) ;
#3 = CARTESIAN_POINT ( 'NONE',  ( 1.745740669421564903E-15, -6.123233995736761105E-17, 0.4999999999999994449 ) ) ;
#4 = PERSON_AND_ORGANIZATION_ROLE ( 'creator' ) ;
#5 = CIRCLE ( 'NONE', #12, 4.149999999999999467 ) ;
#6 = FACE_OUTER_BOUND ( 'NONE', #207, .T. ) ;
#7 = EDGE_LOOP ( 'NONE', ( #8 ) ) ;
#8 = ORIENTED_EDGE ( 'NONE', *, *, #22, .F. ) ;
#9 = PERSON_AND_ORGANIZATION ( #98, #227 ) ;
#10 = CC_DESIGN_DATE_AND_TIME_ASSIGNMENT ( #193, #145, ( #71 ) ) ;
#11 = APPROVAL_STATUS ( 'not_yet_approved' ) ;
#12 = AXIS2_PLACEMENT_3D ( 'NONE', #3, #191, #117 ) ;
#13 = ORIENTED_EDGE ( 'NONE', *, *, #205, .F. ) ;
#14 = COORDINATED_UNIVERSAL_TIME_OFFSET ( 1, 0, .AHEAD. ) ;
#15 = CARTESIAN_POINT ( 'NONE',  ( -1.560678477752389567E-30, 5.474123206715780816E-32, -4.469960816887838430E-16 ) ) ;
#16 = CARTESIAN_POINT ( 'NONE',  ( 5.586370142149013368E-14, 3.112001549023353168E-32, 16.00000000000000000 ) ) ;
#17 = FACE_OUTER_BOUND ( 'NONE', #170, .T. ) ;
#18 = AXIS2_PLACEMENT_3D ( 'NONE', #120, #190, #195 ) ;
#19 = CARTESIAN_POINT ( 'NONE',  ( 5.586370142149013368E-14, -1.959434878635765526E-15, 16.00000000000000000 ) ) ;
#20 = DIRECTION ( 'NONE',  ( 0.0000000000000000000, 1.000000000000000000, 0.0000000000000000000 ) ) ;
#21 = DIRECTION ( 'NONE',  ( 0.0000000000000000000, 1.000000000000000000, 0.0000000000000000000 ) ) ;
#22 = EDGE_CURVE ( 'NONE', #196, #196, #198, .T. ) ;
#23 = DATE_AND_TIME ( #206, #148 ) ;
#24 = ADVANCED_BREP_SHAPE_REPRESENTATION ( '342262', ( #166, #165, #129 ), #121 ) ;
#25 = CARTESIAN_POINT ( 'NONE',  ( 5.586370142149013368E-14, 4.149999999999998579, 16.00000000000000000 ) ) ;
#26 = EDGE_LOOP ( 'NONE', ( #178 ) ) ;
#27 = CC_DESIGN_APPROVAL ( #208, ( #86 ) ) ;
#28 = CARTESIAN_POINT ( 'NONE',  ( 0.0000000000000000000, 0.0000000000000000000, 0.0000000000000000000 ) ) ;
#29 = EDGE_LOOP ( 'NONE', ( #89 ) ) ;
#30 = VERTEX_POINT ( 'NONE', #25 ) ;
#31 = CARTESIAN_POINT ( 'NONE',  ( 4.064084278413407478E-13, 2.999999999999987566, 116.4000000000000057 ) ) ;
#32 = CC_DESIGN_APPROVAL ( #123, ( #242 ) ) ;
#33 = EDGE_LOOP ( 'NONE', ( #172 ) ) ;
#34 = DATE_TIME_ROLE ( 'classification_date' ) ;
#35 = CIRCLE ( 'NONE', #113, 4.150000000000000355 ) ;
#36 = DIRECTION ( 'NONE',  ( 0.0000000000000000000, 1.000000000000000000, 0.0000000000000000000 ) ) ;
#37 = CYLINDRICAL_SURFACE ( 'NONE', #167, 2.999999999999994671 ) ;
#38 = DIRECTION ( 'NONE',  ( 4.275831445896959482E-31, 1.000000000000000000, 1.224646799147353454E-16 ) ) ;
#39 = FACE_OUTER_BOUND ( 'NONE', #33, .T. ) ;
#40 = APPLICATION_CONTEXT ( 'configuration controlled 3d designs of mechanical parts and assemblies' ) ;
#41 = AXIS2_PLACEMENT_3D ( 'NONE', #186, #130, #143 ) ;
#42 = CARTESIAN_POINT ( 'NONE',  ( 6.281823795492834315E-14, -2.203367183542496116E-15, 17.99185842870422292 ) ) ;
#43 = APPLICATION_CONTEXT ( 'configuration controlled 3d designs of mechanical parts and assemblies' ) ;
#44 = CC_DESIGN_PERSON_AND_ORGANIZATION_ASSIGNMENT ( #218, #140, ( #242 ) ) ;
#45 = CARTESIAN_POINT ( 'NONE',  ( -1.560678477752389567E-30, 5.474123206715780816E-32, -4.469960816887838430E-16 ) ) ;
#46 = CC_DESIGN_APPROVAL ( #58, ( #71 ) ) ;
#47 = VERTEX_POINT ( 'NONE', #84 ) ;
#48 = ORIENTED_EDGE ( 'NONE', *, *, #205, .T. ) ;
#49 = DIRECTION ( 'NONE',  ( -4.275831445896959482E-31, -1.000000000000000000, -1.224646799147353454E-16 ) ) ;
#50 = PLANE ( 'NONE',  #141 ) ;
#51 = ADVANCED_FACE ( 'NONE', ( #39 ), #112, .F. ) ;
#52 = PLANE ( 'NONE',  #18 ) ;
#53 = DATE_AND_TIME ( #158, #79 ) ;
#54 = CALENDAR_DATE ( 2021, 3, 12 ) ;
#55 = DATE_AND_TIME ( #54, #64 ) ;
#56 = FACE_BOUND ( 'NONE', #87, .T. ) ;
#57 = APPROVAL_PERSON_ORGANIZATION ( #176, #58, #155 ) ;
#58 = APPROVAL ( #11, 'UNSPECIFIED' ) ;
#59 = ADVANCED_FACE ( 'NONE', ( #219, #214 ), #126, .T. ) ;
#60 = APPROVAL_PERSON_ORGANIZATION ( #139, #208, #201 ) ;
#61 = EDGE_CURVE ( 'NONE', #30, #30, #35, .T. ) ;
#62 = AXIS2_PLACEMENT_3D ( 'NONE', #220, #203, #146 ) ;
#63 = EDGE_LOOP ( 'NONE', ( #235 ) ) ;
#64 = LOCAL_TIME ( 7, 48, 38.00000000000000000, #14 ) ;
#65 = APPLICATION_PROTOCOL_DEFINITION ( 'international standard', 'config_control_design', 1994, #43 ) ;
#66 = AXIS2_PLACEMENT_3D ( 'NONE', #15, #72, #104 ) ;
#67 = VERTEX_POINT ( 'NONE', #157 ) ;
#68 = APPROVAL_DATE_TIME ( #95, #123 ) ;
#69 = EDGE_LOOP ( 'NONE', ( #118 ) ) ;
#70 = PERSON_AND_ORGANIZATION ( #98, #227 ) ;
#71 = PRODUCT_DEFINITION ( 'UNKNOWN', '', #242, #175 ) ;
#72 = DIRECTION ( 'NONE',  ( 3.491481338843133355E-15, -1.224646799147353454E-16, 1.000000000000000000 ) ) ;
#73 = DIRECTION ( 'NONE',  ( -3.491481338843133355E-15, 1.224646799147353454E-16, -1.000000000000000000 ) ) ;
#74 = PERSON_AND_ORGANIZATION ( #98, #227 ) ;
#75 = DIRECTION ( 'NONE',  ( -3.491481338843133355E-15, 1.224646799147353454E-16, -1.000000000000000000 ) ) ;
#76 = FACE_OUTER_BOUND ( 'NONE', #83, .T. ) ;
#77 = ADVANCED_FACE ( 'NONE', ( #161, #17 ), #187, .T. ) ;
#78 = AXIS2_PLACEMENT_3D ( 'NONE', #125, #185, #97 ) ;
#79 = LOCAL_TIME ( 7, 48, 38.00000000000000000, #238 ) ;
#80 = COORDINATED_UNIVERSAL_TIME_OFFSET ( 1, 0, .AHEAD. ) ;
#81 = APPROVAL_PERSON_ORGANIZATION ( #70, #123, #182 ) ;
#82 = AXIS2_PLACEMENT_3D ( 'NONE', #16, #183, #162 ) ;
#83 = EDGE_LOOP ( 'NONE', ( #48 ) ) ;
#84 = CARTESIAN_POINT ( 'NONE',  ( 6.281823795492834315E-14, 2.999999999999985789, 17.99185842870422292 ) ) ;
#85 = ADVANCED_FACE ( 'NONE', ( #76, #180 ), #136, .T. ) ;
#86 = SECURITY_CLASSIFICATION ( '', '', #159 ) ;
#87 = EDGE_LOOP ( 'NONE', ( #230 ) ) ;
#88 = CARTESIAN_POINT ( 'NONE',  ( 0.0000000000000000000, 3.649999999999998135, 0.0000000000000000000 ) ) ;
#89 = ORIENTED_EDGE ( 'NONE', *, *, #61, .T. ) ;
#90 = VERTEX_POINT ( 'NONE', #88 ) ;
#91 = AXIS2_PLACEMENT_3D ( 'NONE', #237, #144, #38 ) ;
#92 = DIRECTION ( 'NONE',  ( 3.491481338843133355E-15, -1.224646799147353454E-16, 1.000000000000000000 ) ) ;
#93 = EDGE_CURVE ( 'NONE', #47, #47, #116, .T. ) ;
#94 = PERSON_AND_ORGANIZATION_ROLE ( 'design_supplier' ) ;
#95 = DATE_AND_TIME ( #217, #215 ) ;
#96 = ADVANCED_FACE ( 'NONE', ( #128 ), #164, .F. ) ;
#97 = DIRECTION ( 'NONE',  ( 4.275831445896959482E-31, 1.000000000000000000, 1.224646799147353207E-16 ) ) ;
#98 = PERSON ( 'UNSPECIFIED', 'UNSPECIFIED', 'UNSPECIFIED', ('UNSPECIFIED'), ('UNSPECIFIED'), ('UNSPECIFIED') ) ;
#99 = AXIS2_PLACEMENT_3D ( 'NONE', #45, #225, #234 ) ;
#100 = CONICAL_SURFACE ( 'NONE', #41, 2.400000000000002576, 0.7853981633974450594 ) ;
#101 = EDGE_CURVE ( 'NONE', #228, #228, #133, .T. ) ;
#102 = APPROVAL_DATE_TIME ( #23, #58 ) ;
#103 = ORIENTED_EDGE ( 'NONE', *, *, #22, .T. ) ;
#104 = DIRECTION ( 'NONE',  ( -4.275831445896959482E-31, -1.000000000000000000, -1.224646799147353700E-16 ) ) ;
#105 = MECHANICAL_CONTEXT ( 'NONE', #40, 'mechanical' ) ;
#106 = LOCAL_TIME ( 7, 48, 38.00000000000000000, #80 ) ;
#107 = AXIS2_PLACEMENT_3D ( 'NONE', #241, #200, #36 ) ;
#108 = ORIENTED_EDGE ( 'NONE', *, *, #93, .T. ) ;
#109 = EDGE_CURVE ( 'NONE', #67, #67, #115, .T. ) ;
#110 = SHAPE_DEFINITION_REPRESENTATION ( #222, #24 ) ;
#111 = CC_DESIGN_SECURITY_CLASSIFICATION ( #86, ( #242 ) ) ;
#112 = PLANE ( 'NONE',  #91 ) ;
#113 = AXIS2_PLACEMENT_3D ( 'NONE', #114, #127, #199 ) ;
#114 = CARTESIAN_POINT ( 'NONE',  ( 5.586370142149013368E-14, -1.959434878635765526E-15, 16.00000000000000000 ) ) ;
#115 = CIRCLE ( 'NONE', #62, 2.400000000000002576 ) ;
#116 = CIRCLE ( 'NONE', #184, 2.999999999999988010 ) ;
#117 = DIRECTION ( 'NONE',  ( 4.640795046716231530E-31, 1.000000000000000000, 1.306267677693378994E-16 ) ) ;
#118 = ORIENTED_EDGE ( 'NONE', *, *, #61, .F. ) ;
#119 = PERSON_AND_ORGANIZATION ( #98, #227 ) ;
#120 = CARTESIAN_POINT ( 'NONE',  ( -7.803392388761947837E-31, 2.737061603357890408E-32, -2.234980408443919215E-16 ) ) ;
#121 =( GEOMETRIC_REPRESENTATION_CONTEXT ( 3 ) GLOBAL_UNCERTAINTY_ASSIGNED_CONTEXT ( ( #211 ) ) GLOBAL_UNIT_ASSIGNED_CONTEXT ( ( #173, #135, #231 ) ) REPRESENTATION_CONTEXT ( 'NONE', 'WORKASPACE' ) );
#122 = EDGE_LOOP ( 'NONE', ( #13 ) ) ;
#123 = APPROVAL ( #236, 'UNSPECIFIED' ) ;
#124 = APPROVAL_DATE_TIME ( #55, #208 ) ;
#125 = CARTESIAN_POINT ( 'NONE',  ( 0.0000000000000000000, 0.0000000000000000000, 0.0000000000000000000 ) ) ;
#126 = CYLINDRICAL_SURFACE ( 'NONE', #78, 4.149999999999999467 ) ;
#127 = DIRECTION ( 'NONE',  ( -3.491481338843133355E-15, 1.224646799147353454E-16, -1.000000000000000000 ) ) ;
#128 = FACE_OUTER_BOUND ( 'NONE', #63, .T. ) ;
#129 = AXIS2_PLACEMENT_3D ( 'NONE', #28, #209, #174 ) ;
#130 = DIRECTION ( 'NONE',  ( -3.491481338843133355E-15, 1.224646799147353454E-16, -1.000000000000000000 ) ) ;
#131 = CC_DESIGN_PERSON_AND_ORGANIZATION_ASSIGNMENT ( #74, #94, ( #242 ) ) ;
#132 = CARTESIAN_POINT ( 'NONE',  ( 5.586370142149013368E-14, 4.149999999999998579, 16.00000000000000000 ) ) ;
#133 = CIRCLE ( 'NONE', #150, 4.150000000000000355 ) ;
#134 = EDGE_LOOP ( 'NONE', ( #108 ) ) ;
#135 =( NAMED_UNIT ( * ) PLANE_ANGLE_UNIT ( ) SI_UNIT ( $, .RADIAN. ) );
#136 = CONICAL_SURFACE ( 'NONE', #66, 3.649999999999998135, 0.7853981633974492782 ) ;
#137 = CARTESIAN_POINT ( 'NONE',  ( 1.745740669421566678E-15, 4.149999999999999467, 0.5000000000000000000 ) ) ;
#138 = ADVANCED_FACE ( 'NONE', ( #149, #56 ), #100, .T. ) ;
#139 = PERSON_AND_ORGANIZATION ( #98, #227 ) ;
#140 = PERSON_AND_ORGANIZATION_ROLE ( 'creator' ) ;
#141 = AXIS2_PLACEMENT_3D ( 'NONE', #171, #92, #49 ) ;
#142 = COORDINATED_UNIVERSAL_TIME_OFFSET ( 1, 0, .AHEAD. ) ;
#143 = DIRECTION ( 'NONE',  ( 0.0000000000000000000, 1.000000000000000000, 0.0000000000000000000 ) ) ;
#144 = DIRECTION ( 'NONE',  ( -3.491481338843133355E-15, 1.224646799147353454E-16, -1.000000000000000000 ) ) ;
#145 = DATE_TIME_ROLE ( 'creation_date' ) ;
#146 = DIRECTION ( 'NONE',  ( 0.0000000000000000000, 1.000000000000000000, 0.0000000000000000000 ) ) ;
#147 = DIRECTION ( 'NONE',  ( -3.491481338843133355E-15, 1.224646799147353454E-16, -1.000000000000000000 ) ) ;
#148 = LOCAL_TIME ( 7, 48, 38.00000000000000000, #233 ) ;
#149 = FACE_OUTER_BOUND ( 'NONE', #7, .T. ) ;
#150 = AXIS2_PLACEMENT_3D ( 'NONE', #19, #75, #243 ) ;
#151 = CALENDAR_DATE ( 2021, 3, 12 ) ;
#152 = ORIENTED_EDGE ( 'NONE', *, *, #93, .F. ) ;
#153 = VERTEX_POINT ( 'NONE', #137 ) ;
#154 = CARTESIAN_POINT ( 'NONE',  ( 4.064084278413407478E-13, -1.425488874207519270E-14, 116.4000000000000057 ) ) ;
#155 = APPROVAL_ROLE ( '' ) ;
#156 = PRODUCT_RELATED_PRODUCT_CATEGORY ( 'detail', '', ( #223 ) ) ;
#157 = CARTESIAN_POINT ( 'NONE',  ( 4.085033166446466404E-13, 2.399999999999987921, 117.0000000000000000 ) ) ;
#158 = CALENDAR_DATE ( 2021, 3, 12 ) ;
#159 = SECURITY_CLASSIFICATION_LEVEL ( 'unclassified' ) ;
#160 = DIRECTION ( 'NONE',  ( -3.491481338843133355E-15, 1.224646799147353454E-16, -1.000000000000000000 ) ) ;
#161 = FACE_BOUND ( 'NONE', #134, .T. ) ;
#162 = DIRECTION ( 'NONE',  ( -4.275831445896959482E-31, -1.000000000000000000, -1.224646799147353454E-16 ) ) ;
#163 = CC_DESIGN_PERSON_AND_ORGANIZATION_ASSIGNMENT ( #119, #4, ( #71 ) ) ;
#164 = PLANE ( 'NONE',  #82 ) ;
#165 = MANIFOLD_SOLID_BREP ( 'Corps-Déplacer/Copier1[2]', #177 ) ;
#166 = MANIFOLD_SOLID_BREP ( 'Corps-Déplacer/Copier1[1]', #216 ) ;
#167 = AXIS2_PLACEMENT_3D ( 'NONE', #181, #160, #2 ) ;
#168 = CC_DESIGN_PERSON_AND_ORGANIZATION_ASSIGNMENT ( #179, #212, ( #86 ) ) ;
#169 = PERSON_AND_ORGANIZATION_ROLE ( 'design_owner' ) ;
#170 = EDGE_LOOP ( 'NONE', ( #197 ) ) ;
#171 = CARTESIAN_POINT ( 'NONE',  ( 5.586370142149013368E-14, 3.112001549023353168E-32, 16.00000000000000000 ) ) ;
#172 = ORIENTED_EDGE ( 'NONE', *, *, #109, .F. ) ;
#173 =( LENGTH_UNIT ( ) NAMED_UNIT ( * ) SI_UNIT ( .MILLI., .METRE. ) );
#174 = DIRECTION ( 'NONE',  ( 1.000000000000000000, 0.0000000000000000000, 0.0000000000000000000 ) ) ;
#175 = DESIGN_CONTEXT ( 'detailed design', #43, 'design' ) ;
#176 = PERSON_AND_ORGANIZATION ( #98, #227 ) ;
#177 = CLOSED_SHELL ( 'NONE', ( #59, #239, #229, #85 ) ) ;
#178 = ORIENTED_EDGE ( 'NONE', *, *, #224, .F. ) ;
#179 = PERSON_AND_ORGANIZATION ( #98, #227 ) ;
#180 = FACE_BOUND ( 'NONE', #26, .T. ) ;
#181 = CARTESIAN_POINT ( 'NONE',  ( 0.0000000000000000000, 0.0000000000000000000, 0.0000000000000000000 ) ) ;
#182 = APPROVAL_ROLE ( '' ) ;
#183 = DIRECTION ( 'NONE',  ( 3.491481338843133355E-15, -1.224646799147353454E-16, 1.000000000000000000 ) ) ;
#184 = AXIS2_PLACEMENT_3D ( 'NONE', #42, #147, #21 ) ;
#185 = DIRECTION ( 'NONE',  ( -3.491481338843133355E-15, 1.224646799147353454E-16, -1.000000000000000000 ) ) ;
#186 = CARTESIAN_POINT ( 'NONE',  ( 4.085033166446466404E-13, -1.432836755002403758E-14, 117.0000000000000000 ) ) ;
#187 = CONICAL_SURFACE ( 'NONE', #107, 4.150000000000000355, 0.5235987755983001479 ) ;
#188 = ADVANCED_FACE ( 'NONE', ( #204, #221 ), #37, .T. ) ;
#189 = AXIS2_PLACEMENT_3D ( 'NONE', #154, #73, #20 ) ;
#190 = DIRECTION ( 'NONE',  ( -3.491481338843133355E-15, 1.224646799147353454E-16, -1.000000000000000000 ) ) ;
#191 = DIRECTION ( 'NONE',  ( -3.491481338843133355E-15, 1.224646799147353454E-16, -1.000000000000000000 ) ) ;
#192 = EDGE_LOOP ( 'NONE', ( #152 ) ) ;
#193 = DATE_AND_TIME ( #151, #106 ) ;
#194 = EDGE_LOOP ( 'NONE', ( #103 ) ) ;
#195 = DIRECTION ( 'NONE',  ( 4.275831445896959482E-31, 1.000000000000000000, 1.224646799147353454E-16 ) ) ;
#196 = VERTEX_POINT ( 'NONE', #31 ) ;
#197 = ORIENTED_EDGE ( 'NONE', *, *, #101, .F. ) ;
#198 = CIRCLE ( 'NONE', #189, 3.000000000000001776 ) ;
#199 = DIRECTION ( 'NONE',  ( 0.0000000000000000000, 1.000000000000000000, 0.0000000000000000000 ) ) ;
#200 = DIRECTION ( 'NONE',  ( -3.491481338843133355E-15, 1.224646799147353454E-16, -1.000000000000000000 ) ) ;
#201 = APPROVAL_ROLE ( '' ) ;
#202 = CC_DESIGN_DATE_AND_TIME_ASSIGNMENT ( #53, #34, ( #86 ) ) ;
#203 = DIRECTION ( 'NONE',  ( -3.491481338843133355E-15, 1.224646799147353454E-16, -1.000000000000000000 ) ) ;
#204 = FACE_OUTER_BOUND ( 'NONE', #192, .T. ) ;
#205 = EDGE_CURVE ( 'NONE', #153, #153, #5, .T. ) ;
#206 = CALENDAR_DATE ( 2021, 3, 12 ) ;
#207 = EDGE_LOOP ( 'NONE', ( #232 ) ) ;
#208 = APPROVAL ( #240, 'UNSPECIFIED' ) ;
#209 = DIRECTION ( 'NONE',  ( 0.0000000000000000000, 0.0000000000000000000, 1.000000000000000000 ) ) ;
#210 = FACE_OUTER_BOUND ( 'NONE', #69, .T. ) ;
#211 = UNCERTAINTY_MEASURE_WITH_UNIT (LENGTH_MEASURE( 1.000000000000000082E-05 ), #173, 'distance_accuracy_value', 'NONE');
#212 = PERSON_AND_ORGANIZATION_ROLE ( 'classification_officer' ) ;
#213 = CC_DESIGN_PERSON_AND_ORGANIZATION_ASSIGNMENT ( #9, #169, ( #223 ) ) ;
#214 = FACE_OUTER_BOUND ( 'NONE', #122, .T. ) ;
#215 = LOCAL_TIME ( 7, 48, 38.00000000000000000, #142 ) ;
#216 = CLOSED_SHELL ( 'NONE', ( #96, #77, #188, #138, #51 ) ) ;
#217 = CALENDAR_DATE ( 2021, 3, 12 ) ;
#218 = PERSON_AND_ORGANIZATION ( #98, #227 ) ;
#219 = FACE_OUTER_BOUND ( 'NONE', #29, .T. ) ;
#220 = CARTESIAN_POINT ( 'NONE',  ( 4.085033166446466404E-13, -1.432836755002403758E-14, 117.0000000000000000 ) ) ;
#221 = FACE_OUTER_BOUND ( 'NONE', #194, .T. ) ;
#222 = PRODUCT_DEFINITION_SHAPE ( 'NONE', 'NONE',  #71 ) ;
#223 = PRODUCT ( '342262', '342262', '', ( #105 ) ) ;
#224 = EDGE_CURVE ( 'NONE', #90, #90, #1, .T. ) ;
#225 = DIRECTION ( 'NONE',  ( -3.491481338843133355E-15, 1.224646799147353454E-16, -1.000000000000000000 ) ) ;
#226 = APPLICATION_PROTOCOL_DEFINITION ( 'international standard', 'config_control_design', 1994, #40 ) ;
#227 = ORGANIZATION ( 'UNSPECIFIED', 'UNSPECIFIED', '' ) ;
#228 = VERTEX_POINT ( 'NONE', #132 ) ;
#229 = ADVANCED_FACE ( 'NONE', ( #6 ), #52, .T. ) ;
#230 = ORIENTED_EDGE ( 'NONE', *, *, #109, .T. ) ;
#231 =( NAMED_UNIT ( * ) SI_UNIT ( $, .STERADIAN. ) SOLID_ANGLE_UNIT ( ) );
#232 = ORIENTED_EDGE ( 'NONE', *, *, #224, .T. ) ;
#233 = COORDINATED_UNIVERSAL_TIME_OFFSET ( 1, 0, .AHEAD. ) ;
#234 = DIRECTION ( 'NONE',  ( 4.275831445896959482E-31, 1.000000000000000000, 1.224646799147353700E-16 ) ) ;
#235 = ORIENTED_EDGE ( 'NONE', *, *, #101, .T. ) ;
#236 = APPROVAL_STATUS ( 'not_yet_approved' ) ;
#237 = CARTESIAN_POINT ( 'NONE',  ( 4.085033166446466404E-13, 1.799711739194210245E-32, 117.0000000000000000 ) ) ;
#238 = COORDINATED_UNIVERSAL_TIME_OFFSET ( 1, 0, .AHEAD. ) ;
#239 = ADVANCED_FACE ( 'NONE', ( #210 ), #50, .T. ) ;
#240 = APPROVAL_STATUS ( 'not_yet_approved' ) ;
#241 = CARTESIAN_POINT ( 'NONE',  ( 5.586370142149013368E-14, -1.959434878635765526E-15, 16.00000000000000000 ) ) ;
#242 = PRODUCT_DEFINITION_FORMATION_WITH_SPECIFIED_SOURCE ( 'ANY', '', #223, .NOT_KNOWN. ) ;
#243 = DIRECTION ( 'NONE',  ( 0.0000000000000000000, 1.000000000000000000, 0.0000000000000000000 ) ) ;
ENDSEC;
END-ISO-10303-21;
