ISO-10303-21;
HEADER;
FILE_DESCRIPTION (( 'STEP AP203' ),
    '1' );
FILE_NAME ('342252.step',
    '2021-12-03T06:48:37',
    ( '' ),
    ( '' ),
    'SwSTEP 2.0',
    'SolidWorks 2019',
    '' );
FILE_SCHEMA (( 'CONFIG_CONTROL_DESIGN' ));
ENDSEC;

DATA;
#1 = DIRECTION ( 'NONE',  ( 0.0000000000000000000, 1.000000000000000000, 0.0000000000000000000 ) ) ;
#2 = EDGE_LOOP ( 'NONE', ( #9 ) ) ;
#3 = CARTESIAN_POINT ( 'NONE',  ( 5.586370142149013368E-14, 4.099999999999997868, 16.00000000000000000 ) ) ;
#4 = DIRECTION ( 'NONE',  ( 0.0000000000000000000, 1.000000000000000000, 0.0000000000000000000 ) ) ;
#5 = PRODUCT_RELATED_PRODUCT_CATEGORY ( 'detail', '', ( #239 ) ) ;
#6 =( GEOMETRIC_REPRESENTATION_CONTEXT ( 3 ) GLOBAL_UNCERTAINTY_ASSIGNED_CONTEXT ( ( #98 ) ) GLOBAL_UNIT_ASSIGNED_CONTEXT ( ( #136, #115, #41 ) ) REPRESENTATION_CONTEXT ( 'NONE', 'WORKASPACE' ) );
#7 = CARTESIAN_POINT ( 'NONE',  ( 0.0000000000000000000, 0.0000000000000000000, 0.0000000000000000000 ) ) ;
#8 = CONICAL_SURFACE ( 'NONE', #178, 4.099999999999999645, 0.5235987755983002589 ) ;
#9 = ORIENTED_EDGE ( 'NONE', *, *, #54, .F. ) ;
#10 = DIRECTION ( 'NONE',  ( -3.491481338843133355E-15, 1.224646799147353454E-16, -1.000000000000000000 ) ) ;
#11 = EDGE_LOOP ( 'NONE', ( #216 ) ) ;
#12 = APPROVAL_ROLE ( '' ) ;
#13 = EDGE_CURVE ( 'NONE', #20, #20, #35, .T. ) ;
#14 = PLANE ( 'NONE',  #51 ) ;
#15 = APPROVAL_STATUS ( 'not_yet_approved' ) ;
#16 = PERSON_AND_ORGANIZATION_ROLE ( 'creator' ) ;
#17 = AXIS2_PLACEMENT_3D ( 'NONE', #189, #109, #74 ) ;
#18 = DIRECTION ( 'NONE',  ( -3.491481338843133355E-15, 1.224646799147353454E-16, -1.000000000000000000 ) ) ;
#19 = DIRECTION ( 'NONE',  ( -3.491481338843133355E-15, 1.224646799147353454E-16, -1.000000000000000000 ) ) ;
#20 = VERTEX_POINT ( 'NONE', #3 ) ;
#21 = EDGE_CURVE ( 'NONE', #94, #94, #196, .T. ) ;
#22 = CARTESIAN_POINT ( 'NONE',  ( -1.710569414459005214E-46, 3.599999999999997868, 0.0000000000000000000 ) ) ;
#23 = MECHANICAL_CONTEXT ( 'NONE', #63, 'mechanical' ) ;
#24 = APPROVAL_PERSON_ORGANIZATION ( #106, #97, #168 ) ;
#25 = ORIENTED_EDGE ( 'NONE', *, *, #230, .T. ) ;
#26 = ORIENTED_EDGE ( 'NONE', *, *, #13, .F. ) ;
#27 = ADVANCED_FACE ( 'NONE', ( #208 ), #171, .F. ) ;
#28 = DIRECTION ( 'NONE',  ( -3.491481338843133355E-15, 1.224646799147353454E-16, -1.000000000000000000 ) ) ;
#29 = APPROVAL_ROLE ( '' ) ;
#30 = AXIS2_PLACEMENT_3D ( 'NONE', #172, #19, #155 ) ;
#31 = DIRECTION ( 'NONE',  ( 0.0000000000000000000, 1.000000000000000000, 0.0000000000000000000 ) ) ;
#32 = APPROVAL_STATUS ( 'not_yet_approved' ) ;
#33 = PERSON ( 'UNSPECIFIED', 'UNSPECIFIED', 'UNSPECIFIED', ('UNSPECIFIED'), ('UNSPECIFIED'), ('UNSPECIFIED') ) ;
#34 = CC_DESIGN_APPROVAL ( #58, ( #126 ) ) ;
#35 = CIRCLE ( 'NONE', #125, 4.099999999999999645 ) ;
#36 = DIRECTION ( 'NONE',  ( 0.0000000000000000000, 1.000000000000000000, 0.0000000000000000000 ) ) ;
#37 = AXIS2_PLACEMENT_3D ( 'NONE', #128, #227, #38 ) ;
#38 = DIRECTION ( 'NONE',  ( 4.275831445896959482E-31, 1.000000000000000000, 1.224646799147353454E-16 ) ) ;
#39 = FACE_BOUND ( 'NONE', #44, .T. ) ;
#40 = VERTEX_POINT ( 'NONE', #60 ) ;
#41 =( NAMED_UNIT ( * ) SI_UNIT ( $, .STERADIAN. ) SOLID_ANGLE_UNIT ( ) );
#42 = CC_DESIGN_SECURITY_CLASSIFICATION ( #213, ( #126 ) ) ;
#43 = ORIENTED_EDGE ( 'NONE', *, *, #133, .T. ) ;
#44 = EDGE_LOOP ( 'NONE', ( #231 ) ) ;
#45 = COORDINATED_UNIVERSAL_TIME_OFFSET ( 1, 0, .AHEAD. ) ;
#46 = CC_DESIGN_PERSON_AND_ORGANIZATION_ASSIGNMENT ( #148, #223, ( #145 ) ) ;
#47 = CYLINDRICAL_SURFACE ( 'NONE', #222, 4.099999999999999645 ) ;
#48 = PERSON_AND_ORGANIZATION ( #33, #90 ) ;
#49 = FACE_OUTER_BOUND ( 'NONE', #181, .T. ) ;
#50 = PERSON_AND_ORGANIZATION_ROLE ( 'design_owner' ) ;
#51 = AXIS2_PLACEMENT_3D ( 'NONE', #122, #180, #200 ) ;
#52 = COORDINATED_UNIVERSAL_TIME_OFFSET ( 1, 0, .AHEAD. ) ;
#53 = MANIFOLD_SOLID_BREP ( 'Corps-Déplacer/Copier1[1]', #234 ) ;
#54 = EDGE_CURVE ( 'NONE', #40, #40, #159, .T. ) ;
#55 = CC_DESIGN_DATE_AND_TIME_ASSIGNMENT ( #182, #161, ( #213 ) ) ;
#56 = APPROVAL_PERSON_ORGANIZATION ( #201, #58, #29 ) ;
#57 = VERTEX_POINT ( 'NONE', #113 ) ;
#58 = APPROVAL ( #32, 'UNSPECIFIED' ) ;
#59 = PLANE ( 'NONE',  #151 ) ;
#60 = CARTESIAN_POINT ( 'NONE',  ( 5.586370142149013368E-14, 4.099999999999997868, 16.00000000000000000 ) ) ;
#61 = DIRECTION ( 'NONE',  ( 4.697390108261551694E-31, 1.000000000000000000, 1.322197771323786130E-16 ) ) ;
#62 = CIRCLE ( 'NONE', #110, 2.400000000000002576 ) ;
#63 = APPLICATION_CONTEXT ( 'configuration controlled 3d designs of mechanical parts and assemblies' ) ;
#64 = EDGE_LOOP ( 'NONE', ( #25 ) ) ;
#65 = ORIENTED_EDGE ( 'NONE', *, *, #96, .T. ) ;
#66 = CC_DESIGN_PERSON_AND_ORGANIZATION_ASSIGNMENT ( #186, #16, ( #126 ) ) ;
#67 = CARTESIAN_POINT ( 'NONE',  ( 4.085033166446466404E-13, -1.432836755002403758E-14, 117.0000000000000000 ) ) ;
#68 = APPROVAL_STATUS ( 'not_yet_approved' ) ;
#69 = FACE_BOUND ( 'NONE', #85, .T. ) ;
#70 = DATE_AND_TIME ( #221, #225 ) ;
#71 = LOCAL_TIME ( 7, 48, 37.00000000000000000, #233 ) ;
#72 = PERSON_AND_ORGANIZATION_ROLE ( 'design_supplier' ) ;
#73 = EDGE_CURVE ( 'NONE', #57, #57, #203, .T. ) ;
#74 = DIRECTION ( 'NONE',  ( -4.275831445896959482E-31, -1.000000000000000000, -1.224646799147353454E-16 ) ) ;
#75 = CC_DESIGN_PERSON_AND_ORGANIZATION_ASSIGNMENT ( #48, #72, ( #126 ) ) ;
#76 = APPLICATION_CONTEXT ( 'configuration controlled 3d designs of mechanical parts and assemblies' ) ;
#77 = AXIS2_PLACEMENT_3D ( 'NONE', #7, #195, #212 ) ;
#78 = DIRECTION ( 'NONE',  ( -3.491481338843133355E-15, 1.224646799147353454E-16, -1.000000000000000000 ) ) ;
#79 = CARTESIAN_POINT ( 'NONE',  ( 6.251586680130059272E-14, 2.999999999999985789, 17.90525588832577952 ) ) ;
#80 = DIRECTION ( 'NONE',  ( -3.491481338843133355E-15, 1.224646799147353454E-16, -1.000000000000000000 ) ) ;
#81 = CARTESIAN_POINT ( 'NONE',  ( 4.085033166446466404E-13, 2.399999999999987921, 117.0000000000000000 ) ) ;
#82 = CC_DESIGN_PERSON_AND_ORGANIZATION_ASSIGNMENT ( #141, #217, ( #213 ) ) ;
#83 = ORIENTED_EDGE ( 'NONE', *, *, #73, .F. ) ;
#84 = FACE_OUTER_BOUND ( 'NONE', #117, .T. ) ;
#85 = EDGE_LOOP ( 'NONE', ( #160 ) ) ;
#86 = CALENDAR_DATE ( 2021, 3, 12 ) ;
#87 = CARTESIAN_POINT ( 'NONE',  ( 0.0000000000000000000, 0.0000000000000000000, 0.0000000000000000000 ) ) ;
#88 = COORDINATED_UNIVERSAL_TIME_OFFSET ( 1, 0, .AHEAD. ) ;
#89 = DATE_TIME_ROLE ( 'creation_date' ) ;
#90 = ORGANIZATION ( 'UNSPECIFIED', 'UNSPECIFIED', '' ) ;
#91 = CIRCLE ( 'NONE', #37, 3.599999999999997868 ) ;
#92 = CARTESIAN_POINT ( 'NONE',  ( 5.586370142149013368E-14, -1.959434878635765526E-15, 16.00000000000000000 ) ) ;
#93 = DIRECTION ( 'NONE',  ( 0.0000000000000000000, 1.000000000000000000, 0.0000000000000000000 ) ) ;
#94 = VERTEX_POINT ( 'NONE', #79 ) ;
#95 = VERTEX_POINT ( 'NONE', #81 ) ;
#96 = EDGE_CURVE ( 'NONE', #193, #193, #91, .T. ) ;
#97 = APPROVAL ( #15, 'UNSPECIFIED' ) ;
#98 = UNCERTAINTY_MEASURE_WITH_UNIT (LENGTH_MEASURE( 1.000000000000000082E-05 ), #136, 'distance_accuracy_value', 'NONE');
#99 = VERTEX_POINT ( 'NONE', #138 ) ;
#100 = CC_DESIGN_APPROVAL ( #157, ( #213 ) ) ;
#101 = CONICAL_SURFACE ( 'NONE', #243, 2.400000000000002576, 0.7853981633974450594 ) ;
#102 = EDGE_LOOP ( 'NONE', ( #43 ) ) ;
#103 = EDGE_LOOP ( 'NONE', ( #118 ) ) ;
#104 = SECURITY_CLASSIFICATION_LEVEL ( 'unclassified' ) ;
#105 = FACE_OUTER_BOUND ( 'NONE', #198, .T. ) ;
#106 = PERSON_AND_ORGANIZATION ( #33, #90 ) ;
#107 = FACE_OUTER_BOUND ( 'NONE', #139, .T. ) ;
#108 = APPROVAL_DATE_TIME ( #184, #58 ) ;
#109 = DIRECTION ( 'NONE',  ( 3.491481338843133355E-15, -1.224646799147353454E-16, 1.000000000000000000 ) ) ;
#110 = AXIS2_PLACEMENT_3D ( 'NONE', #67, #235, #31 ) ;
#111 = FACE_OUTER_BOUND ( 'NONE', #179, .T. ) ;
#112 = CARTESIAN_POINT ( 'NONE',  ( 1.745740669421564903E-15, -6.123233995736761105E-17, 0.4999999999999994449 ) ) ;
#113 = CARTESIAN_POINT ( 'NONE',  ( 4.064084278413407478E-13, 2.999999999999987566, 116.4000000000000057 ) ) ;
#114 = ADVANCED_FACE ( 'NONE', ( #111 ), #59, .T. ) ;
#115 =( NAMED_UNIT ( * ) PLANE_ANGLE_UNIT ( ) SI_UNIT ( $, .RADIAN. ) );
#116 = LOCAL_TIME ( 7, 48, 37.00000000000000000, #88 ) ;
#117 = EDGE_LOOP ( 'NONE', ( #232 ) ) ;
#118 = ORIENTED_EDGE ( 'NONE', *, *, #54, .T. ) ;
#119 = CARTESIAN_POINT ( 'NONE',  ( 5.586370142149013368E-14, -1.959434878635765526E-15, 16.00000000000000000 ) ) ;
#120 = CALENDAR_DATE ( 2021, 3, 12 ) ;
#121 = APPROVAL_DATE_TIME ( #70, #97 ) ;
#122 = CARTESIAN_POINT ( 'NONE',  ( 5.586370142149013368E-14, 3.074507554456806454E-32, 16.00000000000000000 ) ) ;
#123 = PERSON_AND_ORGANIZATION ( #33, #90 ) ;
#124 = AXIS2_PLACEMENT_3D ( 'NONE', #153, #131, #36 ) ;
#125 = AXIS2_PLACEMENT_3D ( 'NONE', #92, #18, #93 ) ;
#126 = PRODUCT_DEFINITION_FORMATION_WITH_SPECIFIED_SOURCE ( 'ANY', '', #239, .NOT_KNOWN. ) ;
#127 = CARTESIAN_POINT ( 'NONE',  ( -7.696496602614523390E-31, 2.699567608791343147E-32, -2.204364238465235083E-16 ) ) ;
#128 = CARTESIAN_POINT ( 'NONE',  ( -1.539299320522904678E-30, 5.399135217582686293E-32, -4.408728476930470165E-16 ) ) ;
#129 = FACE_OUTER_BOUND ( 'NONE', #64, .T. ) ;
#130 = MANIFOLD_SOLID_BREP ( 'Corps-Déplacer/Copier1[2]', #149 ) ;
#131 = DIRECTION ( 'NONE',  ( -3.491481338843133355E-15, 1.224646799147353454E-16, -1.000000000000000000 ) ) ;
#132 = DIRECTION ( 'NONE',  ( 4.275831445896959482E-31, 1.000000000000000000, 1.224646799147353454E-16 ) ) ;
#133 = EDGE_CURVE ( 'NONE', #95, #95, #62, .T. ) ;
#134 = ADVANCED_BREP_SHAPE_REPRESENTATION ( '342252', ( #53, #130, #77 ), #6 ) ;
#135 = CONICAL_SURFACE ( 'NONE', #206, 3.599999999999997868, 0.7853981633974501664 ) ;
#136 =( LENGTH_UNIT ( ) NAMED_UNIT ( * ) SI_UNIT ( .MILLI., .METRE. ) );
#137 = CC_DESIGN_DATE_AND_TIME_ASSIGNMENT ( #205, #89, ( #145 ) ) ;
#138 = CARTESIAN_POINT ( 'NONE',  ( 1.745740669421566678E-15, 4.099999999999999645, 0.5000000000000000000 ) ) ;
#139 = EDGE_LOOP ( 'NONE', ( #83 ) ) ;
#140 = EDGE_LOOP ( 'NONE', ( #214 ) ) ;
#141 = PERSON_AND_ORGANIZATION ( #33, #90 ) ;
#142 = CYLINDRICAL_SURFACE ( 'NONE', #188, 2.999999999999994671 ) ;
#143 = ADVANCED_FACE ( 'NONE', ( #105 ), #14, .T. ) ;
#144 = APPROVAL_DATE_TIME ( #164, #157 ) ;
#145 = PRODUCT_DEFINITION ( 'UNKNOWN', '', #126, #194 ) ;
#146 = FACE_OUTER_BOUND ( 'NONE', #11, .T. ) ;
#147 = LOCAL_TIME ( 7, 48, 37.00000000000000000, #52 ) ;
#148 = PERSON_AND_ORGANIZATION ( #33, #90 ) ;
#149 = CLOSED_SHELL ( 'NONE', ( #169, #143, #114, #215 ) ) ;
#150 = COORDINATED_UNIVERSAL_TIME_OFFSET ( 1, 0, .AHEAD. ) ;
#151 = AXIS2_PLACEMENT_3D ( 'NONE', #127, #207, #191 ) ;
#152 = LOCAL_TIME ( 7, 48, 37.00000000000000000, #45 ) ;
#153 = CARTESIAN_POINT ( 'NONE',  ( 6.251586680130059272E-14, -2.192761431155246857E-15, 17.90525588832577952 ) ) ;
#154 = ADVANCED_FACE ( 'NONE', ( #146, #162 ), #142, .T. ) ;
#155 = DIRECTION ( 'NONE',  ( 0.0000000000000000000, 1.000000000000000000, 0.0000000000000000000 ) ) ;
#156 = DIRECTION ( 'NONE',  ( -4.275831445896960358E-31, -1.000000000000000000, -1.224646799147353454E-16 ) ) ;
#157 = APPROVAL ( #68, 'UNSPECIFIED' ) ;
#158 = DIRECTION ( 'NONE',  ( -3.491481338843133355E-15, 1.224646799147353454E-16, -1.000000000000000000 ) ) ;
#159 = CIRCLE ( 'NONE', #30, 4.099999999999999645 ) ;
#160 = ORIENTED_EDGE ( 'NONE', *, *, #21, .T. ) ;
#161 = DATE_TIME_ROLE ( 'classification_date' ) ;
#162 = FACE_OUTER_BOUND ( 'NONE', #242, .T. ) ;
#163 = ORIENTED_EDGE ( 'NONE', *, *, #73, .T. ) ;
#164 = DATE_AND_TIME ( #86, #71 ) ;
#165 = DIRECTION ( 'NONE',  ( -3.491481338843133355E-15, 1.224646799147353454E-16, -1.000000000000000000 ) ) ;
#166 = CALENDAR_DATE ( 2021, 3, 12 ) ;
#167 = CIRCLE ( 'NONE', #240, 4.099999999999999645 ) ;
#168 = APPROVAL_ROLE ( '' ) ;
#169 = ADVANCED_FACE ( 'NONE', ( #84, #49 ), #47, .T. ) ;
#170 = AXIS2_PLACEMENT_3D ( 'NONE', #226, #78, #1 ) ;
#171 = PLANE ( 'NONE',  #17 ) ;
#172 = CARTESIAN_POINT ( 'NONE',  ( 5.586370142149013368E-14, -1.959434878635765526E-15, 16.00000000000000000 ) ) ;
#173 = ADVANCED_FACE ( 'NONE', ( #69, #202 ), #8, .T. ) ;
#174 = ADVANCED_FACE ( 'NONE', ( #107, #185 ), #101, .T. ) ;
#175 = PLANE ( 'NONE',  #187 ) ;
#176 = CARTESIAN_POINT ( 'NONE',  ( 4.085033166446466404E-13, -1.432836755002403758E-14, 117.0000000000000000 ) ) ;
#177 = APPROVAL_PERSON_ORGANIZATION ( #236, #157, #12 ) ;
#178 = AXIS2_PLACEMENT_3D ( 'NONE', #119, #28, #237 ) ;
#179 = EDGE_LOOP ( 'NONE', ( #65 ) ) ;
#180 = DIRECTION ( 'NONE',  ( 3.491481338843133355E-15, -1.224646799147353454E-16, 1.000000000000000000 ) ) ;
#181 = EDGE_LOOP ( 'NONE', ( #199 ) ) ;
#182 = DATE_AND_TIME ( #120, #152 ) ;
#183 = DIRECTION ( 'NONE',  ( 4.275831445896958607E-31, 1.000000000000000000, 1.224646799147353454E-16 ) ) ;
#184 = DATE_AND_TIME ( #241, #147 ) ;
#185 = FACE_BOUND ( 'NONE', #102, .T. ) ;
#186 = PERSON_AND_ORGANIZATION ( #33, #90 ) ;
#187 = AXIS2_PLACEMENT_3D ( 'NONE', #210, #80, #132 ) ;
#188 = AXIS2_PLACEMENT_3D ( 'NONE', #220, #10, #218 ) ;
#189 = CARTESIAN_POINT ( 'NONE',  ( 5.586370142149013368E-14, 3.074507554456806454E-32, 16.00000000000000000 ) ) ;
#190 = CC_DESIGN_PERSON_AND_ORGANIZATION_ASSIGNMENT ( #123, #50, ( #239 ) ) ;
#191 = DIRECTION ( 'NONE',  ( 4.275831445896959482E-31, 1.000000000000000000, 1.224646799147353454E-16 ) ) ;
#192 = DIRECTION ( 'NONE',  ( 3.491481338843133355E-15, -1.224646799147353454E-16, 1.000000000000000000 ) ) ;
#193 = VERTEX_POINT ( 'NONE', #22 ) ;
#194 = DESIGN_CONTEXT ( 'detailed design', #76, 'design' ) ;
#195 = DIRECTION ( 'NONE',  ( 0.0000000000000000000, 0.0000000000000000000, 1.000000000000000000 ) ) ;
#196 = CIRCLE ( 'NONE', #124, 2.999999999999988010 ) ;
#197 = CC_DESIGN_APPROVAL ( #97, ( #145 ) ) ;
#198 = EDGE_LOOP ( 'NONE', ( #26 ) ) ;
#199 = ORIENTED_EDGE ( 'NONE', *, *, #230, .F. ) ;
#200 = DIRECTION ( 'NONE',  ( -4.275831445896959482E-31, -1.000000000000000000, -1.224646799147353454E-16 ) ) ;
#201 = PERSON_AND_ORGANIZATION ( #33, #90 ) ;
#202 = FACE_OUTER_BOUND ( 'NONE', #2, .T. ) ;
#203 = CIRCLE ( 'NONE', #170, 3.000000000000001776 ) ;
#204 = PRODUCT_DEFINITION_SHAPE ( 'NONE', 'NONE',  #145 ) ;
#205 = DATE_AND_TIME ( #166, #116 ) ;
#206 = AXIS2_PLACEMENT_3D ( 'NONE', #229, #192, #156 ) ;
#207 = DIRECTION ( 'NONE',  ( -3.491481338843133355E-15, 1.224646799147353454E-16, -1.000000000000000000 ) ) ;
#208 = FACE_OUTER_BOUND ( 'NONE', #103, .T. ) ;
#209 = DIRECTION ( 'NONE',  ( -3.491481338843133355E-15, 1.224646799147353454E-16, -1.000000000000000000 ) ) ;
#210 = CARTESIAN_POINT ( 'NONE',  ( 4.085033166446466404E-13, 1.799711739194210245E-32, 117.0000000000000000 ) ) ;
#211 = APPLICATION_PROTOCOL_DEFINITION ( 'international standard', 'config_control_design', 1994, #63 ) ;
#212 = DIRECTION ( 'NONE',  ( 1.000000000000000000, 0.0000000000000000000, 0.0000000000000000000 ) ) ;
#213 = SECURITY_CLASSIFICATION ( '', '', #104 ) ;
#214 = ORIENTED_EDGE ( 'NONE', *, *, #133, .F. ) ;
#215 = ADVANCED_FACE ( 'NONE', ( #129, #39 ), #135, .T. ) ;
#216 = ORIENTED_EDGE ( 'NONE', *, *, #21, .F. ) ;
#217 = PERSON_AND_ORGANIZATION_ROLE ( 'classification_officer' ) ;
#218 = DIRECTION ( 'NONE',  ( 4.275831445896959482E-31, 1.000000000000000000, 1.224646799147353454E-16 ) ) ;
#219 = SHAPE_DEFINITION_REPRESENTATION ( #204, #134 ) ;
#220 = CARTESIAN_POINT ( 'NONE',  ( 0.0000000000000000000, 0.0000000000000000000, 0.0000000000000000000 ) ) ;
#221 = CALENDAR_DATE ( 2021, 3, 12 ) ;
#222 = AXIS2_PLACEMENT_3D ( 'NONE', #87, #165, #183 ) ;
#223 = PERSON_AND_ORGANIZATION_ROLE ( 'creator' ) ;
#224 = ADVANCED_FACE ( 'NONE', ( #228 ), #175, .F. ) ;
#225 = LOCAL_TIME ( 7, 48, 37.00000000000000000, #150 ) ;
#226 = CARTESIAN_POINT ( 'NONE',  ( 4.064084278413407478E-13, -1.425488874207519270E-14, 116.4000000000000057 ) ) ;
#227 = DIRECTION ( 'NONE',  ( -3.491481338843133355E-15, 1.224646799147353454E-16, -1.000000000000000000 ) ) ;
#228 = FACE_OUTER_BOUND ( 'NONE', #140, .T. ) ;
#229 = CARTESIAN_POINT ( 'NONE',  ( -1.539299320522904678E-30, 5.399135217582686293E-32, -4.408728476930470165E-16 ) ) ;
#230 = EDGE_CURVE ( 'NONE', #99, #99, #167, .T. ) ;
#231 = ORIENTED_EDGE ( 'NONE', *, *, #96, .F. ) ;
#232 = ORIENTED_EDGE ( 'NONE', *, *, #13, .T. ) ;
#233 = COORDINATED_UNIVERSAL_TIME_OFFSET ( 1, 0, .AHEAD. ) ;
#234 = CLOSED_SHELL ( 'NONE', ( #27, #173, #154, #174, #224 ) ) ;
#235 = DIRECTION ( 'NONE',  ( -3.491481338843133355E-15, 1.224646799147353454E-16, -1.000000000000000000 ) ) ;
#236 = PERSON_AND_ORGANIZATION ( #33, #90 ) ;
#237 = DIRECTION ( 'NONE',  ( 0.0000000000000000000, 1.000000000000000000, 0.0000000000000000000 ) ) ;
#238 = APPLICATION_PROTOCOL_DEFINITION ( 'international standard', 'config_control_design', 1994, #76 ) ;
#239 = PRODUCT ( '342252', '342252', '', ( #23 ) ) ;
#240 = AXIS2_PLACEMENT_3D ( 'NONE', #112, #158, #61 ) ;
#241 = CALENDAR_DATE ( 2021, 3, 12 ) ;
#242 = EDGE_LOOP ( 'NONE', ( #163 ) ) ;
#243 = AXIS2_PLACEMENT_3D ( 'NONE', #176, #209, #4 ) ;
ENDSEC;
END-ISO-10303-21;
