ISO-10303-21;
HEADER;
FILE_DESCRIPTION (( 'STEP AP203' ),
    '1' );
FILE_NAME ('342242.step',
    '2021-12-03T06:48:37',
    ( '' ),
    ( '' ),
    'SwSTEP 2.0',
    'SolidWorks 2019',
    '' );
FILE_SCHEMA (( 'CONFIG_CONTROL_DESIGN' ));
ENDSEC;

DATA;
#1 = CC_DESIGN_PERSON_AND_ORGANIZATION_ASSIGNMENT ( #11, #56, ( #10 ) ) ;
#2 = VERTEX_POINT ( 'NONE', #88 ) ;
#3 = CONICAL_SURFACE ( 'NONE', #203, 4.049999999999999822, 0.5235987755983005920 ) ;
#4 = APPROVAL_PERSON_ORGANIZATION ( #34, #205, #8 ) ;
#5 = DIRECTION ( 'NONE',  ( 0.0000000000000000000, 0.0000000000000000000, 1.000000000000000000 ) ) ;
#6 = EDGE_CURVE ( 'NONE', #108, #108, #13, .T. ) ;
#7 = ORIENTED_EDGE ( 'NONE', *, *, #236, .F. ) ;
#8 = APPROVAL_ROLE ( '' ) ;
#9 = EDGE_LOOP ( 'NONE', ( #158 ) ) ;
#10 = PRODUCT_DEFINITION ( 'UNKNOWN', '', #45, #93 ) ;
#11 = PERSON_AND_ORGANIZATION ( #41, #220 ) ;
#12 = DATE_AND_TIME ( #118, #86 ) ;
#13 = CIRCLE ( 'NONE', #95, 4.049999999999999822 ) ;
#14 = ORIENTED_EDGE ( 'NONE', *, *, #54, .T. ) ;
#15 = PERSON_AND_ORGANIZATION ( #41, #220 ) ;
#16 = CIRCLE ( 'NONE', #124, 4.049999999999999822 ) ;
#17 = DIRECTION ( 'NONE',  ( -3.491481338843133355E-15, 1.224646799147353454E-16, -1.000000000000000000 ) ) ;
#18 = ADVANCED_FACE ( 'NONE', ( #50, #226 ), #62, .T. ) ;
#19 = CARTESIAN_POINT ( 'NONE',  ( 0.0000000000000000000, 0.0000000000000000000, 0.0000000000000000000 ) ) ;
#20 = DIRECTION ( 'NONE',  ( 4.275831445896959482E-31, 1.000000000000000000, 1.224646799147353207E-16 ) ) ;
#21 = DIRECTION ( 'NONE',  ( 0.0000000000000000000, 1.000000000000000000, 0.0000000000000000000 ) ) ;
#22 = DIRECTION ( 'NONE',  ( -3.491481338843133355E-15, 1.224646799147353454E-16, -1.000000000000000000 ) ) ;
#23 = CIRCLE ( 'NONE', #90, 4.049999999999998934 ) ;
#24 = CC_DESIGN_PERSON_AND_ORGANIZATION_ASSIGNMENT ( #154, #155, ( #179 ) ) ;
#25 = CARTESIAN_POINT ( 'NONE',  ( -1.533048716031138876E-30, 5.377211048324164397E-32, -4.390826034141425703E-16 ) ) ;
#26 = CARTESIAN_POINT ( 'NONE',  ( 1.745740669421564903E-15, -6.123233995736761105E-17, 0.4999999999999994449 ) ) ;
#27 = DIRECTION ( 'NONE',  ( -3.491481338843133355E-15, 1.224646799147353454E-16, -1.000000000000000000 ) ) ;
#28 = DIRECTION ( 'NONE',  ( -3.491481338843133355E-15, 1.224646799147353454E-16, -1.000000000000000000 ) ) ;
#29 = APPROVAL_ROLE ( '' ) ;
#30 = COORDINATED_UNIVERSAL_TIME_OFFSET ( 1, 0, .AHEAD. ) ;
#31 = EDGE_LOOP ( 'NONE', ( #114 ) ) ;
#32 = PERSON_AND_ORGANIZATION_ROLE ( 'design_supplier' ) ;
#33 = EDGE_LOOP ( 'NONE', ( #14 ) ) ;
#34 = PERSON_AND_ORGANIZATION ( #41, #220 ) ;
#35 = CC_DESIGN_DATE_AND_TIME_ASSIGNMENT ( #58, #197, ( #10 ) ) ;
#36 = CALENDAR_DATE ( 2021, 3, 12 ) ;
#37 = AXIS2_PLACEMENT_3D ( 'NONE', #150, #210, #21 ) ;
#38 = EDGE_LOOP ( 'NONE', ( #232 ) ) ;
#39 = ADVANCED_FACE ( 'NONE', ( #135, #237 ), #70, .T. ) ;
#40 = EDGE_LOOP ( 'NONE', ( #213 ) ) ;
#41 = PERSON ( 'UNSPECIFIED', 'UNSPECIFIED', 'UNSPECIFIED', ('UNSPECIFIED'), ('UNSPECIFIED'), ('UNSPECIFIED') ) ;
#42 = CYLINDRICAL_SURFACE ( 'NONE', #116, 4.049999999999999822 ) ;
#43 = DIRECTION ( 'NONE',  ( -3.491481338843133355E-15, 1.224646799147353454E-16, -1.000000000000000000 ) ) ;
#44 = AXIS2_PLACEMENT_3D ( 'NONE', #87, #185, #243 ) ;
#45 = PRODUCT_DEFINITION_FORMATION_WITH_SPECIFIED_SOURCE ( 'ANY', '', #148, .NOT_KNOWN. ) ;
#46 = DIRECTION ( 'NONE',  ( 0.0000000000000000000, 1.000000000000000000, 0.0000000000000000000 ) ) ;
#47 = ADVANCED_FACE ( 'NONE', ( #234, #229 ), #3, .T. ) ;
#48 = DIRECTION ( 'NONE',  ( -4.275831445896959482E-31, -1.000000000000000000, -1.224646799147353454E-16 ) ) ;
#49 = FACE_OUTER_BOUND ( 'NONE', #33, .T. ) ;
#50 = FACE_OUTER_BOUND ( 'NONE', #31, .T. ) ;
#51 = CARTESIAN_POINT ( 'NONE',  ( 4.085033166446466404E-13, 1.799711739194210245E-32, 117.0000000000000000 ) ) ;
#52 = CLOSED_SHELL ( 'NONE', ( #80, #47, #39, #165, #178 ) ) ;
#53 = VERTEX_POINT ( 'NONE', #189 ) ;
#54 = EDGE_CURVE ( 'NONE', #53, #53, #16, .T. ) ;
#55 = COORDINATED_UNIVERSAL_TIME_OFFSET ( 1, 0, .AHEAD. ) ;
#56 = PERSON_AND_ORGANIZATION_ROLE ( 'creator' ) ;
#57 = ORIENTED_EDGE ( 'NONE', *, *, #184, .F. ) ;
#58 = DATE_AND_TIME ( #36, #153 ) ;
#59 = EDGE_LOOP ( 'NONE', ( #79 ) ) ;
#60 = CC_DESIGN_PERSON_AND_ORGANIZATION_ASSIGNMENT ( #192, #217, ( #148 ) ) ;
#61 = APPLICATION_PROTOCOL_DEFINITION ( 'international standard', 'config_control_design', 1994, #98 ) ;
#62 = CONICAL_SURFACE ( 'NONE', #181, 3.549999999999998046, 0.7853981633974492782 ) ;
#63 = LOCAL_TIME ( 7, 48, 37.00000000000000000, #230 ) ;
#64 = ADVANCED_FACE ( 'NONE', ( #169 ), #239, .T. ) ;
#65 = CARTESIAN_POINT ( 'NONE',  ( 5.586370142149013368E-14, -1.959434878635765526E-15, 16.00000000000000000 ) ) ;
#66 = AXIS2_PLACEMENT_3D ( 'NONE', #134, #198, #71 ) ;
#67 = CARTESIAN_POINT ( 'NONE',  ( 1.745740669421566283E-15, 4.049999999999998934, 0.5000000000000000000 ) ) ;
#68 = PLANE ( 'NONE',  #180 ) ;
#69 = CARTESIAN_POINT ( 'NONE',  ( 4.085033166446466404E-13, 2.399999999999987921, 117.0000000000000000 ) ) ;
#70 = CYLINDRICAL_SURFACE ( 'NONE', #132, 2.999999999999995559 ) ;
#71 = DIRECTION ( 'NONE',  ( 0.0000000000000000000, 1.000000000000000000, 0.0000000000000000000 ) ) ;
#72 = DIRECTION ( 'NONE',  ( 3.491481338843133355E-15, -1.224646799147353454E-16, 1.000000000000000000 ) ) ;
#73 = PRODUCT_DEFINITION_SHAPE ( 'NONE', 'NONE',  #10 ) ;
#74 = CARTESIAN_POINT ( 'NONE',  ( 5.586370142149013368E-14, 3.037013559890260287E-32, 16.00000000000000000 ) ) ;
#75 = CALENDAR_DATE ( 2021, 3, 12 ) ;
#76 = EDGE_LOOP ( 'NONE', ( #191 ) ) ;
#77 = APPROVAL_DATE_TIME ( #176, #160 ) ;
#78 = APPLICATION_PROTOCOL_DEFINITION ( 'international standard', 'config_control_design', 1994, #143 ) ;
#79 = ORIENTED_EDGE ( 'NONE', *, *, #184, .T. ) ;
#80 = ADVANCED_FACE ( 'NONE', ( #136 ), #68, .F. ) ;
#81 = CARTESIAN_POINT ( 'NONE',  ( 5.586370142149013368E-14, -1.959434878635765526E-15, 16.00000000000000000 ) ) ;
#82 = CC_DESIGN_PERSON_AND_ORGANIZATION_ASSIGNMENT ( #15, #127, ( #45 ) ) ;
#83 =( LENGTH_UNIT ( ) NAMED_UNIT ( * ) SI_UNIT ( .MILLI., .METRE. ) );
#84 = FACE_BOUND ( 'NONE', #9, .T. ) ;
#85 = DIRECTION ( 'NONE',  ( 4.275831445896959482E-31, 1.000000000000000000, 1.224646799147353454E-16 ) ) ;
#86 = LOCAL_TIME ( 7, 48, 37.00000000000000000, #96 ) ;
#87 = CARTESIAN_POINT ( 'NONE',  ( -1.533048716031138876E-30, 5.377211048324164397E-32, -4.390826034141425703E-16 ) ) ;
#88 = CARTESIAN_POINT ( 'NONE',  ( -1.512855273771918310E-32, 3.549999999999998046, -4.332989716832287748E-18 ) ) ;
#89 = CIRCLE ( 'NONE', #66, 3.000000000000001776 ) ;
#90 = AXIS2_PLACEMENT_3D ( 'NONE', #26, #28, #109 ) ;
#91 = APPROVAL_STATUS ( 'not_yet_approved' ) ;
#92 = COORDINATED_UNIVERSAL_TIME_OFFSET ( 1, 0, .AHEAD. ) ;
#93 = DESIGN_CONTEXT ( 'detailed design', #143, 'design' ) ;
#94 = DATE_AND_TIME ( #75, #139 ) ;
#95 = AXIS2_PLACEMENT_3D ( 'NONE', #81, #17, #106 ) ;
#96 = COORDINATED_UNIVERSAL_TIME_OFFSET ( 1, 0, .AHEAD. ) ;
#97 = EDGE_LOOP ( 'NONE', ( #156 ) ) ;
#98 = APPLICATION_CONTEXT ( 'configuration controlled 3d designs of mechanical parts and assemblies' ) ;
#99 = AXIS2_PLACEMENT_3D ( 'NONE', #224, #27, #137 ) ;
#100 = DIRECTION ( 'NONE',  ( -3.491481338843133355E-15, 1.224646799147353454E-16, -1.000000000000000000 ) ) ;
#101 = MANIFOLD_SOLID_BREP ( 'Corps-Déplacer/Copier1[1]', #52 ) ;
#102 = CIRCLE ( 'NONE', #44, 3.549999999999998046 ) ;
#103 = EDGE_CURVE ( 'NONE', #2, #2, #102, .T. ) ;
#104 = PLANE ( 'NONE',  #163 ) ;
#105 = DIRECTION ( 'NONE',  ( -3.491481338843133355E-15, 1.224646799147353454E-16, -1.000000000000000000 ) ) ;
#106 = DIRECTION ( 'NONE',  ( 0.0000000000000000000, 1.000000000000000000, 0.0000000000000000000 ) ) ;
#107 = APPROVAL_PERSON_ORGANIZATION ( #157, #160, #29 ) ;
#108 = VERTEX_POINT ( 'NONE', #209 ) ;
#109 = DIRECTION ( 'NONE',  ( 3.804306062987133679E-31, 1.000000000000000000, 1.338521200599388434E-16 ) ) ;
#110 = ORIENTED_EDGE ( 'NONE', *, *, #214, .F. ) ;
#111 = CARTESIAN_POINT ( 'NONE',  ( 5.586370142149013368E-14, -1.959434878635765526E-15, 16.00000000000000000 ) ) ;
#112 = ORIENTED_EDGE ( 'NONE', *, *, #54, .F. ) ;
#113 = APPROVAL_STATUS ( 'not_yet_approved' ) ;
#114 = ORIENTED_EDGE ( 'NONE', *, *, #121, .T. ) ;
#115 = APPROVAL_STATUS ( 'not_yet_approved' ) ;
#116 = AXIS2_PLACEMENT_3D ( 'NONE', #125, #105, #20 ) ;
#117 = CC_DESIGN_APPROVAL ( #160, ( #179 ) ) ;
#118 = CALENDAR_DATE ( 2021, 3, 12 ) ;
#119 = AXIS2_PLACEMENT_3D ( 'NONE', #194, #5, #126 ) ;
#120 = ADVANCED_BREP_SHAPE_REPRESENTATION ( '342242', ( #101, #166, #119 ), #216 ) ;
#121 = EDGE_CURVE ( 'NONE', #152, #152, #23, .T. ) ;
#122 = FACE_OUTER_BOUND ( 'NONE', #97, .T. ) ;
#123 = DIRECTION ( 'NONE',  ( 3.491481338843133355E-15, -1.224646799147353454E-16, 1.000000000000000000 ) ) ;
#124 = AXIS2_PLACEMENT_3D ( 'NONE', #65, #164, #151 ) ;
#125 = CARTESIAN_POINT ( 'NONE',  ( 0.0000000000000000000, 0.0000000000000000000, 0.0000000000000000000 ) ) ;
#126 = DIRECTION ( 'NONE',  ( 1.000000000000000000, 0.0000000000000000000, 0.0000000000000000000 ) ) ;
#127 = PERSON_AND_ORGANIZATION_ROLE ( 'creator' ) ;
#128 = ORIENTED_EDGE ( 'NONE', *, *, #6, .F. ) ;
#129 = PERSON_AND_ORGANIZATION ( #41, #220 ) ;
#130 = EDGE_LOOP ( 'NONE', ( #57 ) ) ;
#131 = APPROVAL_ROLE ( '' ) ;
#132 = AXIS2_PLACEMENT_3D ( 'NONE', #19, #43, #206 ) ;
#133 = VERTEX_POINT ( 'NONE', #202 ) ;
#134 = CARTESIAN_POINT ( 'NONE',  ( 4.064084278413407478E-13, -1.425488874207519270E-14, 116.4000000000000057 ) ) ;
#135 = FACE_OUTER_BOUND ( 'NONE', #173, .T. ) ;
#136 = FACE_OUTER_BOUND ( 'NONE', #38, .T. ) ;
#137 = DIRECTION ( 'NONE',  ( 0.0000000000000000000, 1.000000000000000000, 0.0000000000000000000 ) ) ;
#138 = DIRECTION ( 'NONE',  ( -3.491481338843133355E-15, 1.224646799147353454E-16, -1.000000000000000000 ) ) ;
#139 = LOCAL_TIME ( 7, 48, 37.00000000000000000, #92 ) ;
#140 = CIRCLE ( 'NONE', #144, 2.400000000000002576 ) ;
#141 = SECURITY_CLASSIFICATION_LEVEL ( 'unclassified' ) ;
#142 = AXIS2_PLACEMENT_3D ( 'NONE', #207, #22, #85 ) ;
#143 = APPLICATION_CONTEXT ( 'configuration controlled 3d designs of mechanical parts and assemblies' ) ;
#144 = AXIS2_PLACEMENT_3D ( 'NONE', #187, #138, #46 ) ;
#145 = DIRECTION ( 'NONE',  ( -4.275831445896959482E-31, -1.000000000000000000, -1.224646799147353454E-16 ) ) ;
#146 = PLANE ( 'NONE',  #162 ) ;
#147 = DIRECTION ( 'NONE',  ( 3.491481338843133355E-15, -1.224646799147353454E-16, 1.000000000000000000 ) ) ;
#148 = PRODUCT ( '342242', '342242', '', ( #212 ) ) ;
#149 = VERTEX_POINT ( 'NONE', #69 ) ;
#150 = CARTESIAN_POINT ( 'NONE',  ( 4.085033166446466404E-13, -1.432836755002403758E-14, 117.0000000000000000 ) ) ;
#151 = DIRECTION ( 'NONE',  ( 0.0000000000000000000, 1.000000000000000000, 0.0000000000000000000 ) ) ;
#152 = VERTEX_POINT ( 'NONE', #67 ) ;
#153 = LOCAL_TIME ( 7, 48, 37.00000000000000000, #55 ) ;
#154 = PERSON_AND_ORGANIZATION ( #41, #220 ) ;
#155 = PERSON_AND_ORGANIZATION_ROLE ( 'classification_officer' ) ;
#156 = ORIENTED_EDGE ( 'NONE', *, *, #121, .F. ) ;
#157 = PERSON_AND_ORGANIZATION ( #41, #220 ) ;
#158 = ORIENTED_EDGE ( 'NONE', *, *, #236, .T. ) ;
#159 = SHAPE_DEFINITION_REPRESENTATION ( #73, #120 ) ;
#160 = APPROVAL ( #113, 'UNSPECIFIED' ) ;
#161 = ORIENTED_EDGE ( 'NONE', *, *, #214, .T. ) ;
#162 = AXIS2_PLACEMENT_3D ( 'NONE', #51, #222, #188 ) ;
#163 = AXIS2_PLACEMENT_3D ( 'NONE', #74, #123, #145 ) ;
#164 = DIRECTION ( 'NONE',  ( -3.491481338843133355E-15, 1.224646799147353454E-16, -1.000000000000000000 ) ) ;
#165 = ADVANCED_FACE ( 'NONE', ( #183, #84 ), #223, .T. ) ;
#166 = MANIFOLD_SOLID_BREP ( 'Corps-Déplacer/Copier1[2]', #235 ) ;
#167 = CARTESIAN_POINT ( 'NONE',  ( 6.221349564767282966E-14, 2.999999999999988010, 17.81865334794733258 ) ) ;
#168 = CARTESIAN_POINT ( 'NONE',  ( 5.586370142149013368E-14, 3.037013559890260287E-32, 16.00000000000000000 ) ) ;
#169 = FACE_OUTER_BOUND ( 'NONE', #40, .T. ) ;
#170 = CC_DESIGN_APPROVAL ( #205, ( #45 ) ) ;
#171 = EDGE_LOOP ( 'NONE', ( #112 ) ) ;
#172 = UNCERTAINTY_MEASURE_WITH_UNIT (LENGTH_MEASURE( 1.000000000000000082E-05 ), #83, 'distance_accuracy_value', 'NONE');
#173 = EDGE_LOOP ( 'NONE', ( #110 ) ) ;
#174 = DATE_AND_TIME ( #228, #200 ) ;
#175 = EDGE_LOOP ( 'NONE', ( #128 ) ) ;
#176 = DATE_AND_TIME ( #233, #63 ) ;
#177 = APPROVAL_PERSON_ORGANIZATION ( #129, #238, #131 ) ;
#178 = ADVANCED_FACE ( 'NONE', ( #225 ), #146, .F. ) ;
#179 = SECURITY_CLASSIFICATION ( '', '', #141 ) ;
#180 = AXIS2_PLACEMENT_3D ( 'NONE', #168, #72, #48 ) ;
#181 = AXIS2_PLACEMENT_3D ( 'NONE', #25, #147, #242 ) ;
#182 = VERTEX_POINT ( 'NONE', #167 ) ;
#183 = FACE_OUTER_BOUND ( 'NONE', #130, .T. ) ;
#184 = EDGE_CURVE ( 'NONE', #133, #133, #89, .T. ) ;
#185 = DIRECTION ( 'NONE',  ( -3.491481338843133355E-15, 1.224646799147353454E-16, -1.000000000000000000 ) ) ;
#186 = CIRCLE ( 'NONE', #99, 2.999999999999990230 ) ;
#187 = CARTESIAN_POINT ( 'NONE',  ( 4.085033166446466404E-13, -1.432836755002403758E-14, 117.0000000000000000 ) ) ;
#188 = DIRECTION ( 'NONE',  ( 4.275831445896959482E-31, 1.000000000000000000, 1.224646799147353454E-16 ) ) ;
#189 = CARTESIAN_POINT ( 'NONE',  ( 5.586370142149013368E-14, 4.049999999999998046, 16.00000000000000000 ) ) ;
#190 = PERSON_AND_ORGANIZATION ( #41, #220 ) ;
#191 = ORIENTED_EDGE ( 'NONE', *, *, #103, .F. ) ;
#192 = PERSON_AND_ORGANIZATION ( #41, #220 ) ;
#193 = EDGE_LOOP ( 'NONE', ( #7 ) ) ;
#194 = CARTESIAN_POINT ( 'NONE',  ( 0.0000000000000000000, 0.0000000000000000000, 0.0000000000000000000 ) ) ;
#195 = ADVANCED_FACE ( 'NONE', ( #49, #122 ), #42, .T. ) ;
#196 = CC_DESIGN_PERSON_AND_ORGANIZATION_ASSIGNMENT ( #190, #32, ( #45 ) ) ;
#197 = DATE_TIME_ROLE ( 'creation_date' ) ;
#198 = DIRECTION ( 'NONE',  ( -3.491481338843133355E-15, 1.224646799147353454E-16, -1.000000000000000000 ) ) ;
#199 = APPROVAL_DATE_TIME ( #174, #238 ) ;
#200 = LOCAL_TIME ( 7, 48, 37.00000000000000000, #30 ) ;
#201 = CC_DESIGN_DATE_AND_TIME_ASSIGNMENT ( #12, #215, ( #179 ) ) ;
#202 = CARTESIAN_POINT ( 'NONE',  ( 4.064084278413407478E-13, 2.999999999999987566, 116.4000000000000057 ) ) ;
#203 = AXIS2_PLACEMENT_3D ( 'NONE', #111, #100, #219 ) ;
#204 =( NAMED_UNIT ( * ) SI_UNIT ( $, .STERADIAN. ) SOLID_ANGLE_UNIT ( ) );
#205 = APPROVAL ( #115, 'UNSPECIFIED' ) ;
#206 = DIRECTION ( 'NONE',  ( 4.275831445896959482E-31, 1.000000000000000000, 1.224646799147353700E-16 ) ) ;
#207 = CARTESIAN_POINT ( 'NONE',  ( -7.665243580155694380E-31, 2.688605524162082198E-32, -2.195413017070712851E-16 ) ) ;
#208 = CC_DESIGN_APPROVAL ( #238, ( #10 ) ) ;
#209 = CARTESIAN_POINT ( 'NONE',  ( 5.586370142149013368E-14, 4.049999999999998046, 16.00000000000000000 ) ) ;
#210 = DIRECTION ( 'NONE',  ( -3.491481338843133355E-15, 1.224646799147353454E-16, -1.000000000000000000 ) ) ;
#211 = ADVANCED_FACE ( 'NONE', ( #241 ), #104, .T. ) ;
#212 = MECHANICAL_CONTEXT ( 'NONE', #98, 'mechanical' ) ;
#213 = ORIENTED_EDGE ( 'NONE', *, *, #103, .T. ) ;
#214 = EDGE_CURVE ( 'NONE', #182, #182, #186, .T. ) ;
#215 = DATE_TIME_ROLE ( 'classification_date' ) ;
#216 =( GEOMETRIC_REPRESENTATION_CONTEXT ( 3 ) GLOBAL_UNCERTAINTY_ASSIGNED_CONTEXT ( ( #172 ) ) GLOBAL_UNIT_ASSIGNED_CONTEXT ( ( #83, #221, #204 ) ) REPRESENTATION_CONTEXT ( 'NONE', 'WORKASPACE' ) );
#217 = PERSON_AND_ORGANIZATION_ROLE ( 'design_owner' ) ;
#218 = EDGE_LOOP ( 'NONE', ( #161 ) ) ;
#219 = DIRECTION ( 'NONE',  ( 0.0000000000000000000, 1.000000000000000000, 0.0000000000000000000 ) ) ;
#220 = ORGANIZATION ( 'UNSPECIFIED', 'UNSPECIFIED', '' ) ;
#221 =( NAMED_UNIT ( * ) PLANE_ANGLE_UNIT ( ) SI_UNIT ( $, .RADIAN. ) );
#222 = DIRECTION ( 'NONE',  ( -3.491481338843133355E-15, 1.224646799147353454E-16, -1.000000000000000000 ) ) ;
#223 = CONICAL_SURFACE ( 'NONE', #37, 2.400000000000002576, 0.7853981633974450594 ) ;
#224 = CARTESIAN_POINT ( 'NONE',  ( 6.221349564767282966E-14, -2.182155678767997203E-15, 17.81865334794733258 ) ) ;
#225 = FACE_OUTER_BOUND ( 'NONE', #193, .T. ) ;
#226 = FACE_BOUND ( 'NONE', #76, .T. ) ;
#227 = PRODUCT_RELATED_PRODUCT_CATEGORY ( 'detail', '', ( #148 ) ) ;
#228 = CALENDAR_DATE ( 2021, 3, 12 ) ;
#229 = FACE_OUTER_BOUND ( 'NONE', #175, .T. ) ;
#230 = COORDINATED_UNIVERSAL_TIME_OFFSET ( 1, 0, .AHEAD. ) ;
#231 = APPROVAL_DATE_TIME ( #94, #205 ) ;
#232 = ORIENTED_EDGE ( 'NONE', *, *, #6, .T. ) ;
#233 = CALENDAR_DATE ( 2021, 3, 12 ) ;
#234 = FACE_BOUND ( 'NONE', #218, .T. ) ;
#235 = CLOSED_SHELL ( 'NONE', ( #195, #211, #64, #18 ) ) ;
#236 = EDGE_CURVE ( 'NONE', #149, #149, #140, .T. ) ;
#237 = FACE_OUTER_BOUND ( 'NONE', #59, .T. ) ;
#238 = APPROVAL ( #91, 'UNSPECIFIED' ) ;
#239 = PLANE ( 'NONE',  #142 ) ;
#240 = CC_DESIGN_SECURITY_CLASSIFICATION ( #179, ( #45 ) ) ;
#241 = FACE_OUTER_BOUND ( 'NONE', #171, .T. ) ;
#242 = DIRECTION ( 'NONE',  ( -4.275831445896959482E-31, -1.000000000000000000, -1.224646799147353700E-16 ) ) ;
#243 = DIRECTION ( 'NONE',  ( 4.275831445896959482E-31, 1.000000000000000000, 1.224646799147353700E-16 ) ) ;
ENDSEC;
END-ISO-10303-21;
