ISO-10303-21;
HEADER;
FILE_DESCRIPTION (( 'STEP AP203' ),
    '1' );
FILE_NAME ('342234.step',
    '2023-09-28T13:33:25',
    ( '' ),
    ( '' ),
    'SwSTEP 2.0',
    'SolidWorks 2022',
    '' );
FILE_SCHEMA (( 'CONFIG_CONTROL_DESIGN' ));
ENDSEC;

DATA;
#1 = MECHANICAL_CONTEXT ( 'NONE', #8, 'mechanical' ) ;
#2 = DIRECTION ( 'NONE',  ( 3.491481338843133355E-15, -1.224646799147353207E-16, 1.000000000000000000 ) ) ;
#3 = CIRCLE ( 'NONE', #117, 4.009999999999998899 ) ;
#4 = LOCAL_TIME ( 15, 33, 25.00000000000000000, #87 ) ;
#5 = DIRECTION ( 'NONE',  ( -3.491481338843133355E-15, 1.224646799147353207E-16, -1.000000000000000000 ) ) ;
#6 = VERTEX_POINT ( 'NONE', #25 ) ;
#7 = CALENDAR_DATE ( 2023, 28, 9 ) ;
#8 = APPLICATION_CONTEXT ( 'configuration controlled 3d designs of mechanical parts and assemblies' ) ;
#9 = EDGE_LOOP ( 'NONE', ( #120 ) ) ;
#10 = ADVANCED_FACE ( 'NONE', ( #137, #119 ), #96, .T. ) ;
#11 = DATE_AND_TIME ( #236, #74 ) ;
#12 = DIRECTION ( 'NONE',  ( -3.491481338843133355E-15, 1.224646799147353207E-16, -1.000000000000000000 ) ) ;
#13 = ADVANCED_FACE ( 'NONE', ( #158, #94 ), #57, .T. ) ;
#14 = ORIENTED_EDGE ( 'NONE', *, *, #51, .T. ) ;
#15 = CARTESIAN_POINT ( 'NONE',  ( 5.586370142149013368E-14, -1.959434878635765131E-15, 16.00000000000000000 ) ) ;
#16 = DIRECTION ( 'NONE',  ( 0.000000000000000000, 1.000000000000000000, 0.000000000000000000 ) ) ;
#17 =( GEOMETRIC_REPRESENTATION_CONTEXT ( 3 ) GLOBAL_UNCERTAINTY_ASSIGNED_CONTEXT ( ( #128 ) ) GLOBAL_UNIT_ASSIGNED_CONTEXT ( ( #149, #170, #150 ) ) REPRESENTATION_CONTEXT ( 'NONE', 'WORKASPACE' ) );
#18 = AXIS2_PLACEMENT_3D ( 'NONE', #107, #12, #16 ) ;
#19 = CARTESIAN_POINT ( 'NONE',  ( 0.000000000000000000, 0.000000000000000000, 0.000000000000000000 ) ) ;
#20 = DIRECTION ( 'NONE',  ( 3.491481338843133355E-15, -1.224646799147353207E-16, 1.000000000000000000 ) ) ;
#21 = ADVANCED_FACE ( 'NONE', ( #142 ), #159, .T. ) ;
#22 = CARTESIAN_POINT ( 'NONE',  ( 3.526396152231565067E-13, 2.399999999999990585, 101.0000000000000000 ) ) ;
#23 = ORGANIZATION ( 'UNSPECIFIED', 'UNSPECIFIED', '' ) ;
#24 = DIRECTION ( 'NONE',  ( -4.275831445896959482E-31, -1.000000000000000000, -1.224646799147353207E-16 ) ) ;
#25 = CARTESIAN_POINT ( 'NONE',  ( 5.586370142149013368E-14, 4.009999999999998010, 16.00000000000000000 ) ) ;
#26 = CARTESIAN_POINT ( 'NONE',  ( 0.000000000000000000, 0.000000000000000000, 0.000000000000000000 ) ) ;
#27 = CARTESIAN_POINT ( 'NONE',  ( -1.484543220452733823E-30, 5.207076672292148746E-32, -4.251900773282156263E-16 ) ) ;
#28 = PERSON_AND_ORGANIZATION ( #115, #23 ) ;
#29 = ADVANCED_FACE ( 'NONE', ( #80 ), #97, .T. ) ;
#30 = EDGE_LOOP ( 'NONE', ( #213 ) ) ;
#31 = EDGE_LOOP ( 'NONE', ( #56 ) ) ;
#32 = PERSON_AND_ORGANIZATION ( #115, #23 ) ;
#33 = ORIENTED_EDGE ( 'NONE', *, *, #160, .F. ) ;
#34 = COORDINATED_UNIVERSAL_TIME_OFFSET ( 1, 0, .AHEAD. ) ;
#35 = EDGE_LOOP ( 'NONE', ( #54 ) ) ;
#36 = SECURITY_CLASSIFICATION ( '', '', #153 ) ;
#37 = PLANE ( 'NONE',  #167 ) ;
#38 = APPLICATION_CONTEXT ( 'configuration controlled 3d designs of mechanical parts and assemblies' ) ;
#39 = DIRECTION ( 'NONE',  ( 4.322536034784321252E-31, 1.000000000000000000, 1.216685729721888158E-16 ) ) ;
#40 = AXIS2_PLACEMENT_3D ( 'NONE', #181, #161, #204 ) ;
#41 = LOCAL_TIME ( 15, 33, 25.00000000000000000, #69 ) ;
#42 = CIRCLE ( 'NONE', #102, 4.009999999999999787 ) ;
#43 = CARTESIAN_POINT ( 'NONE',  ( 3.526396152231565067E-13, 1.799711739194212982E-32, 101.0000000000000000 ) ) ;
#44 = CC_DESIGN_PERSON_AND_ORGANIZATION_ASSIGNMENT ( #32, #234, ( #85 ) ) ;
#45 = DIRECTION ( 'NONE',  ( 0.000000000000000000, 1.000000000000000000, 0.000000000000000000 ) ) ;
#46 = APPROVAL_ROLE ( '' ) ;
#47 = CC_DESIGN_PERSON_AND_ORGANIZATION_ASSIGNMENT ( #238, #155, ( #85 ) ) ;
#48 = APPROVAL_DATE_TIME ( #232, #157 ) ;
#49 = CLOSED_SHELL ( 'NONE', ( #230, #243, #172, #10, #101 ) ) ;
#50 = VERTEX_POINT ( 'NONE', #164 ) ;
#51 = EDGE_CURVE ( 'NONE', #6, #6, #86, .T. ) ;
#52 = EDGE_LOOP ( 'NONE', ( #33 ) ) ;
#53 = CIRCLE ( 'NONE', #214, 2.400000000000003464 ) ;
#54 = ORIENTED_EDGE ( 'NONE', *, *, #62, .F. ) ;
#55 = PRODUCT_RELATED_PRODUCT_CATEGORY ( 'detail', '', ( #225 ) ) ;
#56 = ORIENTED_EDGE ( 'NONE', *, *, #176, .T. ) ;
#57 = CYLINDRICAL_SURFACE ( 'NONE', #146, 4.009999999999999787 ) ;
#58 = EDGE_CURVE ( 'NONE', #83, #83, #42, .T. ) ;
#59 = CYLINDRICAL_SURFACE ( 'NONE', #40, 2.999999999999996447 ) ;
#60 = DIRECTION ( 'NONE',  ( -3.491481338843133355E-15, 1.224646799147353207E-16, -1.000000000000000000 ) ) ;
#61 = AXIS2_PLACEMENT_3D ( 'NONE', #166, #189, #130 ) ;
#62 = EDGE_CURVE ( 'NONE', #210, #210, #127, .T. ) ;
#63 = DIRECTION ( 'NONE',  ( -3.491481338843133355E-15, 1.224646799147353207E-16, -1.000000000000000000 ) ) ;
#64 = DIRECTION ( 'NONE',  ( 1.000000000000000000, 0.000000000000000000, 0.000000000000000000 ) ) ;
#65 = PERSON_AND_ORGANIZATION_ROLE ( 'design_owner' ) ;
#66 = PERSON_AND_ORGANIZATION ( #115, #23 ) ;
#67 = FACE_OUTER_BOUND ( 'NONE', #175, .T. ) ;
#68 = APPROVAL_PERSON_ORGANIZATION ( #141, #188, #171 ) ;
#69 = COORDINATED_UNIVERSAL_TIME_OFFSET ( 1, 0, .AHEAD. ) ;
#70 = ORIENTED_EDGE ( 'NONE', *, *, #58, .T. ) ;
#71 = APPROVAL ( #92, 'UNSPECIFIED' ) ;
#72 = PERSON_AND_ORGANIZATION ( #115, #23 ) ;
#73 = ORIENTED_EDGE ( 'NONE', *, *, #51, .F. ) ;
#74 = LOCAL_TIME ( 15, 33, 25.00000000000000000, #118 ) ;
#75 = AXIS2_PLACEMENT_3D ( 'NONE', #222, #144, #95 ) ;
#76 = DIRECTION ( 'NONE',  ( 4.275831445896958607E-31, 1.000000000000000000, 1.224646799147352961E-16 ) ) ;
#77 = CLOSED_SHELL ( 'NONE', ( #13, #29, #21, #220 ) ) ;
#78 = DIRECTION ( 'NONE',  ( -3.491481338843133355E-15, 1.224646799147353207E-16, -1.000000000000000000 ) ) ;
#79 = DIRECTION ( 'NONE',  ( 4.275831445896958607E-31, 1.000000000000000000, 1.224646799147353207E-16 ) ) ;
#80 = FACE_OUTER_BOUND ( 'NONE', #235, .T. ) ;
#81 = AXIS2_PLACEMENT_3D ( 'NONE', #26, #209, #64 ) ;
#82 = APPLICATION_PROTOCOL_DEFINITION ( 'international standard', 'config_control_design', 1994, #8 ) ;
#83 = VERTEX_POINT ( 'NONE', #207 ) ;
#84 = CARTESIAN_POINT ( 'NONE',  ( 5.586370142149013368E-14, -1.959434878635765131E-15, 16.00000000000000000 ) ) ;
#85 = PRODUCT_DEFINITION_FORMATION_WITH_SPECIFIED_SOURCE ( 'ANY', '', #225, .NOT_KNOWN. ) ;
#86 = CIRCLE ( 'NONE', #216, 4.009999999999999787 ) ;
#87 = COORDINATED_UNIVERSAL_TIME_OFFSET ( 1, 0, .AHEAD. ) ;
#88 = DATE_TIME_ROLE ( 'creation_date' ) ;
#89 = APPROVAL_DATE_TIME ( #135, #71 ) ;
#90 = CALENDAR_DATE ( 2023, 28, 9 ) ;
#91 = CALENDAR_DATE ( 2023, 28, 9 ) ;
#92 = APPROVAL_STATUS ( 'not_yet_approved' ) ;
#93 = DIRECTION ( 'NONE',  ( -4.275831445896958607E-31, -1.000000000000000000, -1.224646799147353207E-16 ) ) ;
#94 = FACE_OUTER_BOUND ( 'NONE', #104, .T. ) ;
#95 = DIRECTION ( 'NONE',  ( 4.275831445896958607E-31, 1.000000000000000000, 1.224646799147353207E-16 ) ) ;
#96 = CONICAL_SURFACE ( 'NONE', #18, 2.400000000000003464, 0.7853981633974335130 ) ;
#97 = PLANE ( 'NONE',  #185 ) ;
#98 = CC_DESIGN_PERSON_AND_ORGANIZATION_ASSIGNMENT ( #66, #65, ( #225 ) ) ;
#99 = DIRECTION ( 'NONE',  ( -3.491481338843133355E-15, 1.224646799147353207E-16, -1.000000000000000000 ) ) ;
#100 = PLANE ( 'NONE',  #61 ) ;
#101 = ADVANCED_FACE ( 'NONE', ( #125 ), #37, .F. ) ;
#102 = AXIS2_PLACEMENT_3D ( 'NONE', #147, #110, #202 ) ;
#103 = VERTEX_POINT ( 'NONE', #113 ) ;
#104 = EDGE_LOOP ( 'NONE', ( #201 ) ) ;
#105 = APPROVAL_ROLE ( '' ) ;
#106 = EDGE_LOOP ( 'NONE', ( #212 ) ) ;
#107 = CARTESIAN_POINT ( 'NONE',  ( 3.526396152231565067E-13, -1.236893267138826732E-14, 101.0000000000000000 ) ) ;
#108 = APPROVAL_DATE_TIME ( #194, #188 ) ;
#109 = FACE_OUTER_BOUND ( 'NONE', #9, .T. ) ;
#110 = DIRECTION ( 'NONE',  ( -3.491481338843133355E-15, 1.224646799147353207E-16, -1.000000000000000000 ) ) ;
#111 = PERSON_AND_ORGANIZATION ( #115, #23 ) ;
#112 = CC_DESIGN_APPROVAL ( #71, ( #36 ) ) ;
#113 = CARTESIAN_POINT ( 'NONE',  ( 1.396592535537250976E-15, 4.009999999999998899, 0.3999999999999993006 ) ) ;
#114 = PERSON_AND_ORGANIZATION ( #115, #23 ) ;
#115 = PERSON ( 'UNSPECIFIED', 'UNSPECIFIED', 'UNSPECIFIED', ('UNSPECIFIED'), ('UNSPECIFIED'), ('UNSPECIFIED') ) ;
#116 = ORIENTED_EDGE ( 'NONE', *, *, #62, .T. ) ;
#117 = AXIS2_PLACEMENT_3D ( 'NONE', #203, #78, #39 ) ;
#118 = COORDINATED_UNIVERSAL_TIME_OFFSET ( 1, 0, .AHEAD. ) ;
#119 = FACE_BOUND ( 'NONE', #30, .T. ) ;
#120 = ORIENTED_EDGE ( 'NONE', *, *, #129, .T. ) ;
#121 = ORIENTED_EDGE ( 'NONE', *, *, #176, .F. ) ;
#122 = PRODUCT_DEFINITION ( 'UNKNOWN', '', #85, #177 ) ;
#123 = DIRECTION ( 'NONE',  ( -3.491481338843133355E-15, 1.224646799147353207E-16, -1.000000000000000000 ) ) ;
#124 = DIRECTION ( 'NONE',  ( 4.275831445896959482E-31, 1.000000000000000000, 1.224646799147353207E-16 ) ) ;
#125 = FACE_OUTER_BOUND ( 'NONE', #52, .T. ) ;
#126 = FACE_OUTER_BOUND ( 'NONE', #219, .T. ) ;
#127 = CIRCLE ( 'NONE', #195, 3.609999999999998099 ) ;
#128 = UNCERTAINTY_MEASURE_WITH_UNIT (LENGTH_MEASURE( 1.000000000000000082E-05 ), #149, 'distance_accuracy_value', 'NONE');
#129 = EDGE_CURVE ( 'NONE', #165, #165, #183, .T. ) ;
#130 = DIRECTION ( 'NONE',  ( -4.275831445896958607E-31, -1.000000000000000000, -1.224646799147353207E-16 ) ) ;
#131 = MANIFOLD_SOLID_BREP ( 'Corps-Déplacer/Copier1[1]', #49 ) ;
#132 = MANIFOLD_SOLID_BREP ( 'Corps-Déplacer/Copier1[2]', #77 ) ;
#133 = APPLICATION_PROTOCOL_DEFINITION ( 'international standard', 'config_control_design', 1994, #38 ) ;
#134 = LOCAL_TIME ( 15, 33, 25.00000000000000000, #218 ) ;
#135 = DATE_AND_TIME ( #7, #41 ) ;
#136 = EDGE_CURVE ( 'NONE', #103, #103, #3, .T. ) ;
#137 = FACE_OUTER_BOUND ( 'NONE', #106, .T. ) ;
#138 = AXIS2_PLACEMENT_3D ( 'NONE', #186, #99, #163 ) ;
#139 = LOCAL_TIME ( 15, 33, 25.00000000000000000, #34 ) ;
#140 = APPROVAL_STATUS ( 'not_yet_approved' ) ;
#141 = PERSON_AND_ORGANIZATION ( #115, #23 ) ;
#142 = FACE_OUTER_BOUND ( 'NONE', #239, .T. ) ;
#143 = AXIS2_PLACEMENT_3D ( 'NONE', #27, #2, #24 ) ;
#144 = DIRECTION ( 'NONE',  ( -3.491481338843133355E-15, 1.224646799147353207E-16, -1.000000000000000000 ) ) ;
#145 = CARTESIAN_POINT ( 'NONE',  ( 3.505447264198505131E-13, -1.229545386343942402E-14, 100.3999999999999915 ) ) ;
#146 = AXIS2_PLACEMENT_3D ( 'NONE', #19, #241, #76 ) ;
#147 = CARTESIAN_POINT ( 'NONE',  ( 5.586370142149013368E-14, -1.959434878635765131E-15, 16.00000000000000000 ) ) ;
#148 = CALENDAR_DATE ( 2023, 28, 9 ) ;
#149 =( LENGTH_UNIT ( ) NAMED_UNIT ( * ) SI_UNIT ( .MILLI., .METRE. ) );
#150 =( NAMED_UNIT ( * ) SI_UNIT ( $, .STERADIAN. ) SOLID_ANGLE_UNIT ( ) );
#151 = CC_DESIGN_APPROVAL ( #157, ( #122 ) ) ;
#152 = FACE_OUTER_BOUND ( 'NONE', #215, .T. ) ;
#153 = SECURITY_CLASSIFICATION_LEVEL ( 'unclassified' ) ;
#154 = EDGE_LOOP ( 'NONE', ( #14 ) ) ;
#155 = PERSON_AND_ORGANIZATION_ROLE ( 'design_supplier' ) ;
#156 = AXIS2_PLACEMENT_3D ( 'NONE', #84, #5, #45 ) ;
#157 = APPROVAL ( #208, 'UNSPECIFIED' ) ;
#158 = FACE_OUTER_BOUND ( 'NONE', #154, .T. ) ;
#159 = PLANE ( 'NONE',  #75 ) ;
#160 = EDGE_CURVE ( 'NONE', #233, #233, #53, .T. ) ;
#161 = DIRECTION ( 'NONE',  ( -3.491481338843133355E-15, 1.224646799147353207E-16, -1.000000000000000000 ) ) ;
#162 = DIRECTION ( 'NONE',  ( -3.491481338843133355E-15, 1.224646799147353207E-16, -1.000000000000000000 ) ) ;
#163 = DIRECTION ( 'NONE',  ( 0.000000000000000000, 1.000000000000000000, 0.000000000000000000 ) ) ;
#164 = CARTESIAN_POINT ( 'NONE',  ( 6.197159872477062931E-14, 2.999999999999988010, 17.74937131564457715 ) ) ;
#165 = VERTEX_POINT ( 'NONE', #193 ) ;
#166 = CARTESIAN_POINT ( 'NONE',  ( 5.586370142149013368E-14, 3.007018364237021822E-32, 16.00000000000000000 ) ) ;
#167 = AXIS2_PLACEMENT_3D ( 'NONE', #43, #227, #79 ) ;
#168 = FACE_BOUND ( 'NONE', #35, .T. ) ;
#169 = CC_DESIGN_SECURITY_CLASSIFICATION ( #36, ( #85 ) ) ;
#170 =( NAMED_UNIT ( * ) PLANE_ANGLE_UNIT ( ) SI_UNIT ( $, .RADIAN. ) );
#171 = APPROVAL_ROLE ( '' ) ;
#172 = ADVANCED_FACE ( 'NONE', ( #126, #109 ), #59, .T. ) ;
#173 = DATE_TIME_ROLE ( 'classification_date' ) ;
#174 = PRODUCT_DEFINITION_SHAPE ( 'NONE', 'NONE',  #122 ) ;
#175 = EDGE_LOOP ( 'NONE', ( #237 ) ) ;
#176 = EDGE_CURVE ( 'NONE', #50, #50, #240, .T. ) ;
#177 = DESIGN_CONTEXT ( 'detailed design', #38, 'design' ) ;
#178 = PERSON_AND_ORGANIZATION_ROLE ( 'classification_officer' ) ;
#179 = CC_DESIGN_DATE_AND_TIME_ASSIGNMENT ( #11, #173, ( #36 ) ) ;
#180 = CARTESIAN_POINT ( 'NONE',  ( 3.526396152231565067E-13, -1.236893267138826732E-14, 101.0000000000000000 ) ) ;
#181 = CARTESIAN_POINT ( 'NONE',  ( 0.000000000000000000, 0.000000000000000000, 0.000000000000000000 ) ) ;
#182 = CC_DESIGN_PERSON_AND_ORGANIZATION_ASSIGNMENT ( #114, #229, ( #122 ) ) ;
#183 = CIRCLE ( 'NONE', #231, 3.000000000000002665 ) ;
#184 = CONICAL_SURFACE ( 'NONE', #156, 4.009999999999999787, 0.5235987755983005920 ) ;
#185 = AXIS2_PLACEMENT_3D ( 'NONE', #226, #20, #93 ) ;
#186 = CARTESIAN_POINT ( 'NONE',  ( 6.197159872477062931E-14, -2.173671076858197638E-15, 17.74937131564457715 ) ) ;
#187 = DIRECTION ( 'NONE',  ( 0.000000000000000000, 1.000000000000000000, 0.000000000000000000 ) ) ;
#188 = APPROVAL ( #140, 'UNSPECIFIED' ) ;
#189 = DIRECTION ( 'NONE',  ( 3.491481338843133355E-15, -1.224646799147353207E-16, 1.000000000000000000 ) ) ;
#190 = CARTESIAN_POINT ( 'NONE',  ( 5.903193151606757837E-32, 3.609999999999998099, 1.690741716397861745E-17 ) ) ;
#191 = FACE_BOUND ( 'NONE', #31, .T. ) ;
#192 = CONICAL_SURFACE ( 'NONE', #143, 3.609999999999998099, 0.7853981633974500554 ) ;
#193 = CARTESIAN_POINT ( 'NONE',  ( 3.505447264198505131E-13, 2.999999999999990674, 100.3999999999999915 ) ) ;
#194 = DATE_AND_TIME ( #91, #134 ) ;
#195 = AXIS2_PLACEMENT_3D ( 'NONE', #224, #162, #124 ) ;
#196 = EDGE_LOOP ( 'NONE', ( #200 ) ) ;
#197 = APPROVAL_PERSON_ORGANIZATION ( #111, #157, #46 ) ;
#198 = CC_DESIGN_PERSON_AND_ORGANIZATION_ASSIGNMENT ( #28, #178, ( #36 ) ) ;
#199 = DATE_AND_TIME ( #90, #139 ) ;
#200 = ORIENTED_EDGE ( 'NONE', *, *, #136, .T. ) ;
#201 = ORIENTED_EDGE ( 'NONE', *, *, #136, .F. ) ;
#202 = DIRECTION ( 'NONE',  ( 0.000000000000000000, 1.000000000000000000, 0.000000000000000000 ) ) ;
#203 = CARTESIAN_POINT ( 'NONE',  ( 1.396592535537249201E-15, -4.898587196589398900E-17, 0.3999999999999988010 ) ) ;
#204 = DIRECTION ( 'NONE',  ( 4.275831445896958607E-31, 1.000000000000000000, 1.224646799147353207E-16 ) ) ;
#205 = CC_DESIGN_DATE_AND_TIME_ASSIGNMENT ( #199, #88, ( #122 ) ) ;
#206 = DIRECTION ( 'NONE',  ( 0.000000000000000000, 1.000000000000000000, 0.000000000000000000 ) ) ;
#207 = CARTESIAN_POINT ( 'NONE',  ( 5.586370142149013368E-14, 4.009999999999998010, 16.00000000000000000 ) ) ;
#208 = APPROVAL_STATUS ( 'not_yet_approved' ) ;
#209 = DIRECTION ( 'NONE',  ( 0.000000000000000000, 0.000000000000000000, 1.000000000000000000 ) ) ;
#210 = VERTEX_POINT ( 'NONE', #190 ) ;
#211 = CC_DESIGN_APPROVAL ( #188, ( #85 ) ) ;
#212 = ORIENTED_EDGE ( 'NONE', *, *, #129, .F. ) ;
#213 = ORIENTED_EDGE ( 'NONE', *, *, #160, .T. ) ;
#214 = AXIS2_PLACEMENT_3D ( 'NONE', #180, #60, #206 ) ;
#215 = EDGE_LOOP ( 'NONE', ( #70 ) ) ;
#216 = AXIS2_PLACEMENT_3D ( 'NONE', #15, #123, #228 ) ;
#217 = SHAPE_DEFINITION_REPRESENTATION ( #174, #221 ) ;
#218 = COORDINATED_UNIVERSAL_TIME_OFFSET ( 1, 0, .AHEAD. ) ;
#219 = EDGE_LOOP ( 'NONE', ( #121 ) ) ;
#220 = ADVANCED_FACE ( 'NONE', ( #242, #168 ), #192, .T. ) ;
#221 = ADVANCED_BREP_SHAPE_REPRESENTATION ( '342234', ( #131, #132, #81 ), #17 ) ;
#222 = CARTESIAN_POINT ( 'NONE',  ( -7.422716102263669117E-31, 2.603538336146074373E-32, -2.125950386641078132E-16 ) ) ;
#223 = APPROVAL_PERSON_ORGANIZATION ( #72, #71, #105 ) ;
#224 = CARTESIAN_POINT ( 'NONE',  ( -1.484543220452733823E-30, 5.207076672292148746E-32, -4.251900773282156263E-16 ) ) ;
#225 = PRODUCT ( '342234', '342234', '', ( #1 ) ) ;
#226 = CARTESIAN_POINT ( 'NONE',  ( 5.586370142149013368E-14, 3.007018364237021822E-32, 16.00000000000000000 ) ) ;
#227 = DIRECTION ( 'NONE',  ( -3.491481338843133355E-15, 1.224646799147353207E-16, -1.000000000000000000 ) ) ;
#228 = DIRECTION ( 'NONE',  ( 0.000000000000000000, 1.000000000000000000, 0.000000000000000000 ) ) ;
#229 = PERSON_AND_ORGANIZATION_ROLE ( 'creator' ) ;
#230 = ADVANCED_FACE ( 'NONE', ( #152 ), #100, .F. ) ;
#231 = AXIS2_PLACEMENT_3D ( 'NONE', #145, #63, #187 ) ;
#232 = DATE_AND_TIME ( #148, #4 ) ;
#233 = VERTEX_POINT ( 'NONE', #22 ) ;
#234 = PERSON_AND_ORGANIZATION_ROLE ( 'creator' ) ;
#235 = EDGE_LOOP ( 'NONE', ( #73 ) ) ;
#236 = CALENDAR_DATE ( 2023, 28, 9 ) ;
#237 = ORIENTED_EDGE ( 'NONE', *, *, #58, .F. ) ;
#238 = PERSON_AND_ORGANIZATION ( #115, #23 ) ;
#239 = EDGE_LOOP ( 'NONE', ( #116 ) ) ;
#240 = CIRCLE ( 'NONE', #138, 2.999999999999990230 ) ;
#241 = DIRECTION ( 'NONE',  ( -3.491481338843133355E-15, 1.224646799147353207E-16, -1.000000000000000000 ) ) ;
#242 = FACE_OUTER_BOUND ( 'NONE', #196, .T. ) ;
#243 = ADVANCED_FACE ( 'NONE', ( #191, #67 ), #184, .T. ) ;
ENDSEC;
END-ISO-10303-21;
