ISO-10303-21;
HEADER;
FILE_DESCRIPTION (( 'STEP AP203' ),
    '1' );
FILE_NAME ('342233.step',
    '2023-09-28T13:33:24',
    ( '' ),
    ( '' ),
    'SwSTEP 2.0',
    'SolidWorks 2022',
    '' );
FILE_SCHEMA (( 'CONFIG_CONTROL_DESIGN' ));
ENDSEC;

DATA;
#1 = CALENDAR_DATE ( 2023, 28, 9 ) ;
#2 = APPROVAL_ROLE ( '' ) ;
#3 = LOCAL_TIME ( 15, 33, 24.00000000000000000, #131 ) ;
#4 = PERSON_AND_ORGANIZATION ( #136, #225 ) ;
#5 = EDGE_LOOP ( 'NONE', ( #31 ) ) ;
#6 = FACE_BOUND ( 'NONE', #156, .T. ) ;
#7 = EDGE_CURVE ( 'NONE', #82, #82, #221, .T. ) ;
#8 = DIRECTION ( 'NONE',  ( -4.275831445896958607E-31, -1.000000000000000000, -1.224646799147353207E-16 ) ) ;
#9 = CARTESIAN_POINT ( 'NONE',  ( 1.396592535537247031E-15, -4.898587196589390889E-17, 0.3999999999999981903 ) ) ;
#10 = EDGE_CURVE ( 'NONE', #202, #202, #68, .T. ) ;
#11 = FACE_BOUND ( 'NONE', #199, .T. ) ;
#12 = AXIS2_PLACEMENT_3D ( 'NONE', #210, #118, #106 ) ;
#13 =( LENGTH_UNIT ( ) NAMED_UNIT ( * ) SI_UNIT ( .MILLI., .METRE. ) );
#14 = FACE_OUTER_BOUND ( 'NONE', #93, .T. ) ;
#15 = MECHANICAL_CONTEXT ( 'NONE', #186, 'mechanical' ) ;
#16 = AXIS2_PLACEMENT_3D ( 'NONE', #141, #138, #153 ) ;
#17 = CARTESIAN_POINT ( 'NONE',  ( 5.586370142149013368E-14, -1.959434878635765131E-15, 16.00000000000000000 ) ) ;
#18 = CARTESIAN_POINT ( 'NONE',  ( 5.586370142149013368E-14, 4.004999999999998117, 16.00000000000000000 ) ) ;
#19 = ADVANCED_FACE ( 'NONE', ( #179 ), #178, .F. ) ;
#20 = DATE_TIME_ROLE ( 'creation_date' ) ;
#21 = AXIS2_PLACEMENT_3D ( 'NONE', #28, #215, #8 ) ;
#22 = DATE_AND_TIME ( #171, #195 ) ;
#23 = ADVANCED_BREP_SHAPE_REPRESENTATION ( '342233', ( #58, #52, #87 ), #157 ) ;
#24 = PRODUCT_RELATED_PRODUCT_CATEGORY ( 'detail', '', ( #75 ) ) ;
#25 = CONICAL_SURFACE ( 'NONE', #164, 2.400000000000003464, 0.7853981633974335130 ) ;
#26 = DATE_AND_TIME ( #1, #49 ) ;
#27 = ADVANCED_FACE ( 'NONE', ( #121, #11 ), #33, .T. ) ;
#28 = CARTESIAN_POINT ( 'NONE',  ( 5.586370142149013368E-14, 3.003268964780366876E-32, 16.00000000000000000 ) ) ;
#29 = AXIS2_PLACEMENT_3D ( 'NONE', #71, #120, #209 ) ;
#30 = DIRECTION ( 'NONE',  ( 0.000000000000000000, 1.000000000000000000, 0.000000000000000000 ) ) ;
#31 = ORIENTED_EDGE ( 'NONE', *, *, #174, .F. ) ;
#32 = EDGE_LOOP ( 'NONE', ( #147 ) ) ;
#33 = CONICAL_SURFACE ( 'NONE', #123, 3.604999999999998206, 0.7853981633974519427 ) ;
#34 = FACE_OUTER_BOUND ( 'NONE', #152, .T. ) ;
#35 = DIRECTION ( 'NONE',  ( 1.000000000000000000, 0.000000000000000000, 0.000000000000000000 ) ) ;
#36 = FACE_BOUND ( 'NONE', #204, .T. ) ;
#37 = LOCAL_TIME ( 15, 33, 24.00000000000000000, #116 ) ;
#38 = CYLINDRICAL_SURFACE ( 'NONE', #64, 2.999999999999996447 ) ;
#39 = CARTESIAN_POINT ( 'NONE',  ( -7.707186181229264871E-31, 2.703317008247996997E-32, -2.207425855463103274E-16 ) ) ;
#40 = EDGE_LOOP ( 'NONE', ( #223 ) ) ;
#41 = APPROVAL ( #148, 'UNSPECIFIED' ) ;
#42 = PERSON_AND_ORGANIZATION ( #136, #225 ) ;
#43 = AXIS2_PLACEMENT_3D ( 'NONE', #39, #220, #98 ) ;
#44 = DATE_AND_TIME ( #69, #37 ) ;
#45 = EDGE_LOOP ( 'NONE', ( #88 ) ) ;
#46 = ADVANCED_FACE ( 'NONE', ( #198 ), #73, .T. ) ;
#47 = FACE_OUTER_BOUND ( 'NONE', #40, .T. ) ;
#48 = CARTESIAN_POINT ( 'NONE',  ( 3.526396152231565067E-13, -1.236893267138826732E-14, 101.0000000000000000 ) ) ;
#49 = LOCAL_TIME ( 15, 33, 24.00000000000000000, #146 ) ;
#50 = DIRECTION ( 'NONE',  ( 4.327932459297159309E-31, 1.000000000000000000, 1.218204688185960063E-16 ) ) ;
#51 = CARTESIAN_POINT ( 'NONE',  ( -1.541437236245852974E-30, 5.406634016495993994E-32, -4.414851710926206548E-16 ) ) ;
#52 = MANIFOLD_SOLID_BREP ( 'Corps-Déplacer/Copier1[2]', #61 ) ;
#53 = ORIENTED_EDGE ( 'NONE', *, *, #7, .T. ) ;
#54 = CIRCLE ( 'NONE', #163, 4.004999999999999893 ) ;
#55 =( NAMED_UNIT ( * ) SI_UNIT ( $, .STERADIAN. ) SOLID_ANGLE_UNIT ( ) );
#56 = EDGE_CURVE ( 'NONE', #83, #83, #54, .T. ) ;
#57 = CARTESIAN_POINT ( 'NONE',  ( 0.000000000000000000, 0.000000000000000000, 0.000000000000000000 ) ) ;
#58 = MANIFOLD_SOLID_BREP ( 'Corps-Déplacer/Copier1[1]', #155 ) ;
#59 = CC_DESIGN_DATE_AND_TIME_ASSIGNMENT ( #67, #20, ( #217 ) ) ;
#60 = PERSON_AND_ORGANIZATION_ROLE ( 'design_owner' ) ;
#61 = CLOSED_SHELL ( 'NONE', ( #65, #46, #216, #27 ) ) ;
#62 = CARTESIAN_POINT ( 'NONE',  ( 5.586370142149013368E-14, -1.959434878635765131E-15, 16.00000000000000000 ) ) ;
#63 = PRODUCT_DEFINITION_FORMATION_WITH_SPECIFIED_SOURCE ( 'ANY', '', #75, .NOT_KNOWN. ) ;
#64 = AXIS2_PLACEMENT_3D ( 'NONE', #57, #128, #114 ) ;
#65 = ADVANCED_FACE ( 'NONE', ( #230, #34 ), #229, .T. ) ;
#66 = VERTEX_POINT ( 'NONE', #81 ) ;
#67 = DATE_AND_TIME ( #103, #181 ) ;
#68 = CIRCLE ( 'NONE', #74, 3.604999999999998206 ) ;
#69 = CALENDAR_DATE ( 2023, 28, 9 ) ;
#70 = ORIENTED_EDGE ( 'NONE', *, *, #174, .T. ) ;
#71 = CARTESIAN_POINT ( 'NONE',  ( 0.000000000000000000, 0.000000000000000000, 0.000000000000000000 ) ) ;
#72 = CARTESIAN_POINT ( 'NONE',  ( -1.541437236245852974E-30, 5.406634016495993994E-32, -4.414851710926206548E-16 ) ) ;
#73 = PLANE ( 'NONE',  #21 ) ;
#74 = AXIS2_PLACEMENT_3D ( 'NONE', #51, #77, #140 ) ;
#75 = PRODUCT ( '342233', '342233', '', ( #15 ) ) ;
#76 = ORIENTED_EDGE ( 'NONE', *, *, #10, .F. ) ;
#77 = DIRECTION ( 'NONE',  ( -3.491481338843133355E-15, 1.224646799147353207E-16, -1.000000000000000000 ) ) ;
#78 = PLANE ( 'NONE',  #43 ) ;
#79 = FACE_OUTER_BOUND ( 'NONE', #160, .T. ) ;
#80 = AXIS2_PLACEMENT_3D ( 'NONE', #200, #95, #240 ) ;
#81 = CARTESIAN_POINT ( 'NONE',  ( 3.526396152231565067E-13, 2.399999999999990585, 101.0000000000000000 ) ) ;
#82 = VERTEX_POINT ( 'NONE', #238 ) ;
#83 = VERTEX_POINT ( 'NONE', #113 ) ;
#84 = PERSON_AND_ORGANIZATION ( #136, #225 ) ;
#85 = APPROVAL_STATUS ( 'not_yet_approved' ) ;
#86 = PERSON_AND_ORGANIZATION ( #136, #225 ) ;
#87 = AXIS2_PLACEMENT_3D ( 'NONE', #219, #144, #35 ) ;
#88 = ORIENTED_EDGE ( 'NONE', *, *, #7, .F. ) ;
#89 = APPROVAL ( #207, 'UNSPECIFIED' ) ;
#90 = DIRECTION ( 'NONE',  ( -3.491481338843133355E-15, 1.224646799147353207E-16, -1.000000000000000000 ) ) ;
#91 = ORIENTED_EDGE ( 'NONE', *, *, #56, .T. ) ;
#92 = ORIENTED_EDGE ( 'NONE', *, *, #56, .F. ) ;
#93 = EDGE_LOOP ( 'NONE', ( #122 ) ) ;
#94 = VERTEX_POINT ( 'NONE', #167 ) ;
#95 = DIRECTION ( 'NONE',  ( -3.491481338843133355E-15, 1.224646799147353207E-16, -1.000000000000000000 ) ) ;
#96 = CIRCLE ( 'NONE', #145, 4.004999999999999893 ) ;
#97 = FACE_OUTER_BOUND ( 'NONE', #110, .T. ) ;
#98 = DIRECTION ( 'NONE',  ( 4.275831445896958607E-31, 1.000000000000000000, 1.224646799147353207E-16 ) ) ;
#99 = APPROVAL_ROLE ( '' ) ;
#100 = PERSON_AND_ORGANIZATION ( #136, #225 ) ;
#101 = ADVANCED_FACE ( 'NONE', ( #47 ), #117, .F. ) ;
#102 = CC_DESIGN_PERSON_AND_ORGANIZATION_ASSIGNMENT ( #165, #60, ( #75 ) ) ;
#103 = CALENDAR_DATE ( 2023, 28, 9 ) ;
#104 = CC_DESIGN_APPROVAL ( #89, ( #217 ) ) ;
#105 = DATE_TIME_ROLE ( 'classification_date' ) ;
#106 = DIRECTION ( 'NONE',  ( 4.275831445896958607E-31, 1.000000000000000000, 1.224646799147353207E-16 ) ) ;
#107 = CARTESIAN_POINT ( 'NONE',  ( 3.526396152231565067E-13, -1.236893267138826732E-14, 101.0000000000000000 ) ) ;
#108 = ORIENTED_EDGE ( 'NONE', *, *, #134, .T. ) ;
#109 = AXIS2_PLACEMENT_3D ( 'NONE', #194, #90, #235 ) ;
#110 = EDGE_LOOP ( 'NONE', ( #135 ) ) ;
#111 = APPROVAL_PERSON_ORGANIZATION ( #84, #203, #2 ) ;
#112 = DIRECTION ( 'NONE',  ( -3.491481338843133355E-15, 1.224646799147353207E-16, -1.000000000000000000 ) ) ;
#113 = CARTESIAN_POINT ( 'NONE',  ( 1.396592535537248609E-15, 4.004999999999999893, 0.3999999999999986899 ) ) ;
#114 = DIRECTION ( 'NONE',  ( 4.275831445896958607E-31, 1.000000000000000000, 1.224646799147353207E-16 ) ) ;
#115 = UNCERTAINTY_MEASURE_WITH_UNIT (LENGTH_MEASURE( 1.000000000000000082E-05 ), #13, 'distance_accuracy_value', 'NONE');
#116 = COORDINATED_UNIVERSAL_TIME_OFFSET ( 1, 0, .AHEAD. ) ;
#117 = PLANE ( 'NONE',  #12 ) ;
#118 = DIRECTION ( 'NONE',  ( -3.491481338843133355E-15, 1.224646799147353207E-16, -1.000000000000000000 ) ) ;
#119 = SECURITY_CLASSIFICATION ( '', '', #205 ) ;
#120 = DIRECTION ( 'NONE',  ( -3.491481338843133355E-15, 1.224646799147353207E-16, -1.000000000000000000 ) ) ;
#121 = FACE_OUTER_BOUND ( 'NONE', #212, .T. ) ;
#122 = ORIENTED_EDGE ( 'NONE', *, *, #243, .T. ) ;
#123 = AXIS2_PLACEMENT_3D ( 'NONE', #72, #214, #177 ) ;
#124 = DIRECTION ( 'NONE',  ( 0.000000000000000000, 1.000000000000000000, 0.000000000000000000 ) ) ;
#125 = DIRECTION ( 'NONE',  ( -3.491481338843133355E-15, 1.224646799147353207E-16, -1.000000000000000000 ) ) ;
#126 = VERTEX_POINT ( 'NONE', #18 ) ;
#127 = AXIS2_PLACEMENT_3D ( 'NONE', #62, #112, #183 ) ;
#128 = DIRECTION ( 'NONE',  ( -3.491481338843133355E-15, 1.224646799147353207E-16, -1.000000000000000000 ) ) ;
#129 = ADVANCED_FACE ( 'NONE', ( #175, #6 ), #25, .T. ) ;
#130 = APPROVAL_DATE_TIME ( #22, #41 ) ;
#131 = COORDINATED_UNIVERSAL_TIME_OFFSET ( 1, 0, .AHEAD. ) ;
#132 = SHAPE_DEFINITION_REPRESENTATION ( #218, #23 ) ;
#133 = DIRECTION ( 'NONE',  ( -3.491481338843133355E-15, 1.224646799147353207E-16, -1.000000000000000000 ) ) ;
#134 = EDGE_CURVE ( 'NONE', #66, #66, #187, .T. ) ;
#135 = ORIENTED_EDGE ( 'NONE', *, *, #10, .T. ) ;
#136 = PERSON ( 'UNSPECIFIED', 'UNSPECIFIED', 'UNSPECIFIED', ('UNSPECIFIED'), ('UNSPECIFIED'), ('UNSPECIFIED') ) ;
#137 = CC_DESIGN_PERSON_AND_ORGANIZATION_ASSIGNMENT ( #42, #228, ( #119 ) ) ;
#138 = DIRECTION ( 'NONE',  ( 3.491481338843133355E-15, -1.224646799147353207E-16, 1.000000000000000000 ) ) ;
#139 = CC_DESIGN_APPROVAL ( #203, ( #119 ) ) ;
#140 = DIRECTION ( 'NONE',  ( 4.275831445896959482E-31, 1.000000000000000000, 1.224646799147353207E-16 ) ) ;
#141 = CARTESIAN_POINT ( 'NONE',  ( 5.586370142149013368E-14, 3.003268964780366876E-32, 16.00000000000000000 ) ) ;
#142 = CARTESIAN_POINT ( 'NONE',  ( 3.505447264198505131E-13, -1.229545386343942402E-14, 100.3999999999999915 ) ) ;
#143 = CARTESIAN_POINT ( 'NONE',  ( 5.586370142149013368E-14, 4.004999999999998117, 16.00000000000000000 ) ) ;
#144 = DIRECTION ( 'NONE',  ( 0.000000000000000000, 0.000000000000000000, 1.000000000000000000 ) ) ;
#145 = AXIS2_PLACEMENT_3D ( 'NONE', #17, #236, #237 ) ;
#146 = COORDINATED_UNIVERSAL_TIME_OFFSET ( 1, 0, .AHEAD. ) ;
#147 = ORIENTED_EDGE ( 'NONE', *, *, #243, .F. ) ;
#148 = APPROVAL_STATUS ( 'not_yet_approved' ) ;
#149 = CIRCLE ( 'NONE', #80, 4.004999999999999893 ) ;
#150 = PERSON_AND_ORGANIZATION_ROLE ( 'creator' ) ;
#151 = COORDINATED_UNIVERSAL_TIME_OFFSET ( 1, 0, .AHEAD. ) ;
#152 = EDGE_LOOP ( 'NONE', ( #92 ) ) ;
#153 = DIRECTION ( 'NONE',  ( -4.275831445896958607E-31, -1.000000000000000000, -1.224646799147353207E-16 ) ) ;
#154 = DIRECTION ( 'NONE',  ( 0.000000000000000000, 1.000000000000000000, 0.000000000000000000 ) ) ;
#155 = CLOSED_SHELL ( 'NONE', ( #19, #224, #162, #129, #101 ) ) ;
#156 = EDGE_LOOP ( 'NONE', ( #108 ) ) ;
#157 =( GEOMETRIC_REPRESENTATION_CONTEXT ( 3 ) GLOBAL_UNCERTAINTY_ASSIGNED_CONTEXT ( ( #115 ) ) GLOBAL_UNIT_ASSIGNED_CONTEXT ( ( #13, #184, #55 ) ) REPRESENTATION_CONTEXT ( 'NONE', 'WORKASPACE' ) );
#158 = AXIS2_PLACEMENT_3D ( 'NONE', #107, #176, #154 ) ;
#159 = CC_DESIGN_PERSON_AND_ORGANIZATION_ASSIGNMENT ( #86, #170, ( #63 ) ) ;
#160 = EDGE_LOOP ( 'NONE', ( #208 ) ) ;
#161 = VERTEX_POINT ( 'NONE', #143 ) ;
#162 = ADVANCED_FACE ( 'NONE', ( #231, #14 ), #38, .T. ) ;
#163 = AXIS2_PLACEMENT_3D ( 'NONE', #9, #133, #50 ) ;
#164 = AXIS2_PLACEMENT_3D ( 'NONE', #48, #196, #30 ) ;
#165 = PERSON_AND_ORGANIZATION ( #136, #225 ) ;
#166 = CC_DESIGN_PERSON_AND_ORGANIZATION_ASSIGNMENT ( #100, #222, ( #63 ) ) ;
#167 = CARTESIAN_POINT ( 'NONE',  ( 3.505447264198505131E-13, 2.999999999999990674, 100.3999999999999915 ) ) ;
#168 = DESIGN_CONTEXT ( 'detailed design', #241, 'design' ) ;
#169 = DATE_AND_TIME ( #227, #3 ) ;
#170 = PERSON_AND_ORGANIZATION_ROLE ( 'design_supplier' ) ;
#171 = CALENDAR_DATE ( 2023, 28, 9 ) ;
#172 = AXIS2_PLACEMENT_3D ( 'NONE', #142, #125, #124 ) ;
#173 = APPROVAL_ROLE ( '' ) ;
#174 = EDGE_CURVE ( 'NONE', #161, #161, #149, .T. ) ;
#175 = FACE_OUTER_BOUND ( 'NONE', #32, .T. ) ;
#176 = DIRECTION ( 'NONE',  ( -3.491481338843133355E-15, 1.224646799147353207E-16, -1.000000000000000000 ) ) ;
#177 = DIRECTION ( 'NONE',  ( -4.275831445896959482E-31, -1.000000000000000000, -1.224646799147353207E-16 ) ) ;
#178 = PLANE ( 'NONE',  #16 ) ;
#179 = FACE_OUTER_BOUND ( 'NONE', #233, .T. ) ;
#180 = APPLICATION_PROTOCOL_DEFINITION ( 'international standard', 'config_control_design', 1994, #186 ) ;
#181 = LOCAL_TIME ( 15, 33, 24.00000000000000000, #189 ) ;
#182 = CONICAL_SURFACE ( 'NONE', #127, 4.004999999999999893, 0.5235987755983003700 ) ;
#183 = DIRECTION ( 'NONE',  ( 0.000000000000000000, 1.000000000000000000, 0.000000000000000000 ) ) ;
#184 =( NAMED_UNIT ( * ) PLANE_ANGLE_UNIT ( ) SI_UNIT ( $, .RADIAN. ) );
#185 = PERSON_AND_ORGANIZATION ( #136, #225 ) ;
#186 = APPLICATION_CONTEXT ( 'configuration controlled 3d designs of mechanical parts and assemblies' ) ;
#187 = CIRCLE ( 'NONE', #158, 2.400000000000003464 ) ;
#188 = PERSON_AND_ORGANIZATION ( #136, #225 ) ;
#189 = COORDINATED_UNIVERSAL_TIME_OFFSET ( 1, 0, .AHEAD. ) ;
#190 = ORIENTED_EDGE ( 'NONE', *, *, #226, .T. ) ;
#191 = APPROVAL_PERSON_ORGANIZATION ( #4, #41, #99 ) ;
#192 = APPLICATION_PROTOCOL_DEFINITION ( 'international standard', 'config_control_design', 1994, #241 ) ;
#193 = CC_DESIGN_DATE_AND_TIME_ASSIGNMENT ( #26, #105, ( #119 ) ) ;
#194 = CARTESIAN_POINT ( 'NONE',  ( 6.194136160940786058E-14, -2.172610501619472594E-15, 17.74071106160673139 ) ) ;
#195 = LOCAL_TIME ( 15, 33, 24.00000000000000000, #151 ) ;
#196 = DIRECTION ( 'NONE',  ( -3.491481338843133355E-15, 1.224646799147353207E-16, -1.000000000000000000 ) ) ;
#197 = EDGE_LOOP ( 'NONE', ( #70 ) ) ;
#198 = FACE_OUTER_BOUND ( 'NONE', #5, .T. ) ;
#199 = EDGE_LOOP ( 'NONE', ( #76 ) ) ;
#200 = CARTESIAN_POINT ( 'NONE',  ( 5.586370142149013368E-14, -1.959434878635765131E-15, 16.00000000000000000 ) ) ;
#201 = CARTESIAN_POINT ( 'NONE',  ( 0.000000000000000000, 3.604999999999998206, 0.000000000000000000 ) ) ;
#202 = VERTEX_POINT ( 'NONE', #201 ) ;
#203 = APPROVAL ( #85, 'UNSPECIFIED' ) ;
#204 = EDGE_LOOP ( 'NONE', ( #53 ) ) ;
#205 = SECURITY_CLASSIFICATION_LEVEL ( 'unclassified' ) ;
#206 = APPROVAL_DATE_TIME ( #44, #89 ) ;
#207 = APPROVAL_STATUS ( 'not_yet_approved' ) ;
#208 = ORIENTED_EDGE ( 'NONE', *, *, #226, .F. ) ;
#209 = DIRECTION ( 'NONE',  ( 4.275831445896958607E-31, 1.000000000000000000, 1.224646799147353207E-16 ) ) ;
#210 = CARTESIAN_POINT ( 'NONE',  ( 3.526396152231565067E-13, 1.799711739194212982E-32, 101.0000000000000000 ) ) ;
#211 = CC_DESIGN_APPROVAL ( #41, ( #63 ) ) ;
#212 = EDGE_LOOP ( 'NONE', ( #91 ) ) ;
#213 = APPROVAL_PERSON_ORGANIZATION ( #188, #89, #173 ) ;
#214 = DIRECTION ( 'NONE',  ( 3.491481338843133355E-15, -1.224646799147353207E-16, 1.000000000000000000 ) ) ;
#215 = DIRECTION ( 'NONE',  ( 3.491481338843133355E-15, -1.224646799147353207E-16, 1.000000000000000000 ) ) ;
#216 = ADVANCED_FACE ( 'NONE', ( #97 ), #78, .T. ) ;
#217 = PRODUCT_DEFINITION ( 'UNKNOWN', '', #63, #168 ) ;
#218 = PRODUCT_DEFINITION_SHAPE ( 'NONE', 'NONE',  #217 ) ;
#219 = CARTESIAN_POINT ( 'NONE',  ( 0.000000000000000000, 0.000000000000000000, 0.000000000000000000 ) ) ;
#220 = DIRECTION ( 'NONE',  ( -3.491481338843133355E-15, 1.224646799147353207E-16, -1.000000000000000000 ) ) ;
#221 = CIRCLE ( 'NONE', #109, 2.999999999999990230 ) ;
#222 = PERSON_AND_ORGANIZATION_ROLE ( 'creator' ) ;
#223 = ORIENTED_EDGE ( 'NONE', *, *, #134, .F. ) ;
#224 = ADVANCED_FACE ( 'NONE', ( #36, #79 ), #182, .T. ) ;
#225 = ORGANIZATION ( 'UNSPECIFIED', 'UNSPECIFIED', '' ) ;
#226 = EDGE_CURVE ( 'NONE', #126, #126, #96, .T. ) ;
#227 = CALENDAR_DATE ( 2023, 28, 9 ) ;
#228 = PERSON_AND_ORGANIZATION_ROLE ( 'classification_officer' ) ;
#229 = CYLINDRICAL_SURFACE ( 'NONE', #29, 4.004999999999999893 ) ;
#230 = FACE_OUTER_BOUND ( 'NONE', #197, .T. ) ;
#231 = FACE_OUTER_BOUND ( 'NONE', #45, .T. ) ;
#232 = CIRCLE ( 'NONE', #172, 3.000000000000002665 ) ;
#233 = EDGE_LOOP ( 'NONE', ( #190 ) ) ;
#234 = CC_DESIGN_SECURITY_CLASSIFICATION ( #119, ( #63 ) ) ;
#235 = DIRECTION ( 'NONE',  ( 0.000000000000000000, 1.000000000000000000, 0.000000000000000000 ) ) ;
#236 = DIRECTION ( 'NONE',  ( -3.491481338843133355E-15, 1.224646799147353207E-16, -1.000000000000000000 ) ) ;
#237 = DIRECTION ( 'NONE',  ( 0.000000000000000000, 1.000000000000000000, 0.000000000000000000 ) ) ;
#238 = CARTESIAN_POINT ( 'NONE',  ( 6.194136160940786058E-14, 2.999999999999988010, 17.74071106160673139 ) ) ;
#239 = CC_DESIGN_PERSON_AND_ORGANIZATION_ASSIGNMENT ( #185, #150, ( #217 ) ) ;
#240 = DIRECTION ( 'NONE',  ( 0.000000000000000000, 1.000000000000000000, 0.000000000000000000 ) ) ;
#241 = APPLICATION_CONTEXT ( 'configuration controlled 3d designs of mechanical parts and assemblies' ) ;
#242 = APPROVAL_DATE_TIME ( #169, #203 ) ;
#243 = EDGE_CURVE ( 'NONE', #94, #94, #232, .T. ) ;
ENDSEC;
END-ISO-10303-21;
