ISO-10303-21;
HEADER;
FILE_DESCRIPTION (( 'STEP AP203' ),
    '1' );
FILE_NAME ('342232.step',
    '2023-09-28T13:33:23',
    ( '' ),
    ( '' ),
    'SwSTEP 2.0',
    'SolidWorks 2022',
    '' );
FILE_SCHEMA (( 'CONFIG_CONTROL_DESIGN' ));
ENDSEC;

DATA;
#1 = CC_DESIGN_SECURITY_CLASSIFICATION ( #102, ( #235 ) ) ;
#2 = FACE_OUTER_BOUND ( 'NONE', #65, .T. ) ;
#3 = EDGE_CURVE ( 'NONE', #35, #35, #158, .T. ) ;
#4 = CC_DESIGN_APPROVAL ( #26, ( #210 ) ) ;
#5 = PERSON_AND_ORGANIZATION ( #66, #147 ) ;
#6 = CARTESIAN_POINT ( 'NONE',  ( 3.526396152231565067E-13, 2.399999999999990585, 101.0000000000000000 ) ) ;
#7 = SECURITY_CLASSIFICATION_LEVEL ( 'unclassified' ) ;
#8 = DIRECTION ( 'NONE',  ( -3.491481338843133355E-15, 1.224646799147353207E-16, -1.000000000000000000 ) ) ;
#9 = APPROVAL_DATE_TIME ( #176, #26 ) ;
#10 = CIRCLE ( 'NONE', #84, 4.000000000000000000 ) ;
#11 = MANIFOLD_SOLID_BREP ( 'Corps-Déplacer/Copier1[2]', #219 ) ;
#12 = AXIS2_PLACEMENT_3D ( 'NONE', #167, #243, #241 ) ;
#13 = APPROVAL_DATE_TIME ( #138, #212 ) ;
#14 = EDGE_LOOP ( 'NONE', ( #29 ) ) ;
#15 = DIRECTION ( 'NONE',  ( 0.000000000000000000, 1.000000000000000000, 0.000000000000000000 ) ) ;
#16 = FACE_OUTER_BOUND ( 'NONE', #63, .T. ) ;
#17 = CARTESIAN_POINT ( 'NONE',  ( 6.191112449404509185E-14, -2.171549926380747944E-15, 17.73205080756888918 ) ) ;
#18 = CARTESIAN_POINT ( 'NONE',  ( -1.539299320522904678E-30, 5.399135217582685199E-32, -4.408728476930470165E-16 ) ) ;
#19 = CARTESIAN_POINT ( 'NONE',  ( 3.505447264198505131E-13, 2.999999999999990674, 100.3999999999999915 ) ) ;
#20 = EDGE_CURVE ( 'NONE', #187, #187, #74, .T. ) ;
#21 = AXIS2_PLACEMENT_3D ( 'NONE', #88, #166, #89 ) ;
#22 = COORDINATED_UNIVERSAL_TIME_OFFSET ( 1, 0, .AHEAD. ) ;
#23 = APPROVAL_ROLE ( '' ) ;
#24 = PERSON_AND_ORGANIZATION ( #66, #147 ) ;
#25 = EDGE_LOOP ( 'NONE', ( #199 ) ) ;
#26 = APPROVAL ( #111, 'UNSPECIFIED' ) ;
#27 = ADVANCED_FACE ( 'NONE', ( #196 ), #28, .F. ) ;
#28 = PLANE ( 'NONE',  #132 ) ;
#29 = ORIENTED_EDGE ( 'NONE', *, *, #118, .F. ) ;
#30 = DATE_TIME_ROLE ( 'classification_date' ) ;
#31 = DIRECTION ( 'NONE',  ( -4.275831445896958607E-31, -1.000000000000000000, -1.224646799147353207E-16 ) ) ;
#32 = DIRECTION ( 'NONE',  ( -3.491481338843133355E-15, 1.224646799147353207E-16, -1.000000000000000000 ) ) ;
#33 = DIRECTION ( 'NONE',  ( 0.000000000000000000, 1.000000000000000000, 0.000000000000000000 ) ) ;
#34 = FACE_OUTER_BOUND ( 'NONE', #121, .T. ) ;
#35 = VERTEX_POINT ( 'NONE', #108 ) ;
#36 = CONICAL_SURFACE ( 'NONE', #174, 4.000000000000000000, 0.5235987755983002589 ) ;
#37 = LOCAL_TIME ( 15, 33, 23.00000000000000000, #198 ) ;
#38 = DATE_AND_TIME ( #110, #80 ) ;
#39 = AXIS2_PLACEMENT_3D ( 'NONE', #103, #148, #75 ) ;
#40 = PRODUCT ( '342232', '342232', '', ( #232 ) ) ;
#41 = AXIS2_PLACEMENT_3D ( 'NONE', #145, #126, #205 ) ;
#42 = PERSON_AND_ORGANIZATION_ROLE ( 'creator' ) ;
#43 = EDGE_CURVE ( 'NONE', #191, #191, #195, .T. ) ;
#44 = ORIENTED_EDGE ( 'NONE', *, *, #20, .T. ) ;
#45 = APPLICATION_CONTEXT ( 'configuration controlled 3d designs of mechanical parts and assemblies' ) ;
#46 = ORIENTED_EDGE ( 'NONE', *, *, #61, .T. ) ;
#47 = EDGE_LOOP ( 'NONE', ( #181 ) ) ;
#48 = DIRECTION ( 'NONE',  ( -3.491481338843133355E-15, 1.224646799147353207E-16, -1.000000000000000000 ) ) ;
#49 = CC_DESIGN_APPROVAL ( #95, ( #235 ) ) ;
#50 = SHAPE_DEFINITION_REPRESENTATION ( #237, #94 ) ;
#51 = DIRECTION ( 'NONE',  ( -3.491481338843133355E-15, 1.224646799147353207E-16, -1.000000000000000000 ) ) ;
#52 = CC_DESIGN_PERSON_AND_ORGANIZATION_ASSIGNMENT ( #211, #42, ( #235 ) ) ;
#53 = DIRECTION ( 'NONE',  ( 3.491481338843133355E-15, -1.224646799147353207E-16, 1.000000000000000000 ) ) ;
#54 = AXIS2_PLACEMENT_3D ( 'NONE', #87, #161, #238 ) ;
#55 = DIRECTION ( 'NONE',  ( 4.275831445896958607E-31, 1.000000000000000000, 1.224646799147353207E-16 ) ) ;
#56 = CARTESIAN_POINT ( 'NONE',  ( 5.586370142149013368E-14, -1.959434878635765131E-15, 16.00000000000000000 ) ) ;
#57 = LOCAL_TIME ( 15, 33, 23.00000000000000000, #96 ) ;
#58 = PERSON_AND_ORGANIZATION_ROLE ( 'creator' ) ;
#59 = DATE_AND_TIME ( #76, #57 ) ;
#60 = CONICAL_SURFACE ( 'NONE', #200, 3.599999999999998757, 0.7853981633974500554 ) ;
#61 = EDGE_CURVE ( 'NONE', #130, #130, #10, .T. ) ;
#62 = PERSON_AND_ORGANIZATION ( #66, #147 ) ;
#63 = EDGE_LOOP ( 'NONE', ( #44 ) ) ;
#64 = AXIS2_PLACEMENT_3D ( 'NONE', #105, #127, #15 ) ;
#65 = EDGE_LOOP ( 'NONE', ( #218 ) ) ;
#66 = PERSON ( 'UNSPECIFIED', 'UNSPECIFIED', 'UNSPECIFIED', ('UNSPECIFIED'), ('UNSPECIFIED'), ('UNSPECIFIED') ) ;
#67 = FACE_OUTER_BOUND ( 'NONE', #85, .T. ) ;
#68 = CARTESIAN_POINT ( 'NONE',  ( 5.586370142149013368E-14, 2.999519565323712479E-32, 16.00000000000000000 ) ) ;
#69 = CYLINDRICAL_SURFACE ( 'NONE', #41, 4.000000000000000000 ) ;
#70 = CC_DESIGN_PERSON_AND_ORGANIZATION_ASSIGNMENT ( #62, #136, ( #40 ) ) ;
#71 = AXIS2_PLACEMENT_3D ( 'NONE', #68, #206, #142 ) ;
#72 = FACE_OUTER_BOUND ( 'NONE', #14, .T. ) ;
#73 = LOCAL_TIME ( 15, 33, 23.00000000000000000, #22 ) ;
#74 = CIRCLE ( 'NONE', #234, 3.000000000000002665 ) ;
#75 = DIRECTION ( 'NONE',  ( 4.275831445896958607E-31, 1.000000000000000000, 1.224646799147353207E-16 ) ) ;
#76 = CALENDAR_DATE ( 2023, 28, 9 ) ;
#77 = APPLICATION_CONTEXT ( 'configuration controlled 3d designs of mechanical parts and assemblies' ) ;
#78 = PERSON_AND_ORGANIZATION ( #66, #147 ) ;
#79 = AXIS2_PLACEMENT_3D ( 'NONE', #17, #32, #90 ) ;
#80 = LOCAL_TIME ( 15, 33, 23.00000000000000000, #208 ) ;
#81 = DIRECTION ( 'NONE',  ( 0.000000000000000000, 1.000000000000000000, 0.000000000000000000 ) ) ;
#82 = DIRECTION ( 'NONE',  ( 0.000000000000000000, 0.000000000000000000, 1.000000000000000000 ) ) ;
#83 = ORIENTED_EDGE ( 'NONE', *, *, #188, .T. ) ;
#84 = AXIS2_PLACEMENT_3D ( 'NONE', #123, #201, #146 ) ;
#85 = EDGE_LOOP ( 'NONE', ( #177 ) ) ;
#86 = CC_DESIGN_APPROVAL ( #212, ( #102 ) ) ;
#87 = CARTESIAN_POINT ( 'NONE',  ( -1.539299320522904678E-30, 5.399135217582685199E-32, -4.408728476930470165E-16 ) ) ;
#88 = CARTESIAN_POINT ( 'NONE',  ( 5.586370142149013368E-14, -1.959434878635765131E-15, 16.00000000000000000 ) ) ;
#89 = DIRECTION ( 'NONE',  ( 0.000000000000000000, 1.000000000000000000, 0.000000000000000000 ) ) ;
#90 = DIRECTION ( 'NONE',  ( 0.000000000000000000, 1.000000000000000000, 0.000000000000000000 ) ) ;
#91 = MANIFOLD_SOLID_BREP ( 'Corps-Déplacer/Copier1[1]', #128 ) ;
#92 = FACE_BOUND ( 'NONE', #120, .T. ) ;
#93 = CARTESIAN_POINT ( 'NONE',  ( 5.586370142149013368E-14, 2.999519565323712479E-32, 16.00000000000000000 ) ) ;
#94 = ADVANCED_BREP_SHAPE_REPRESENTATION ( '342232', ( #91, #11, #163 ), #129 ) ;
#95 = APPROVAL ( #190, 'UNSPECIFIED' ) ;
#96 = COORDINATED_UNIVERSAL_TIME_OFFSET ( 1, 0, .AHEAD. ) ;
#97 = EDGE_LOOP ( 'NONE', ( #137 ) ) ;
#98 = APPLICATION_PROTOCOL_DEFINITION ( 'international standard', 'config_control_design', 1994, #77 ) ;
#99 = CARTESIAN_POINT ( 'NONE',  ( 3.526396152231565067E-13, 1.799711739194212982E-32, 101.0000000000000000 ) ) ;
#100 = EDGE_LOOP ( 'NONE', ( #159 ) ) ;
#101 = APPROVAL_STATUS ( 'not_yet_approved' ) ;
#102 = SECURITY_CLASSIFICATION ( '', '', #7 ) ;
#103 = CARTESIAN_POINT ( 'NONE',  ( -7.696496602614523390E-31, 2.699567608791342599E-32, -2.204364238465235083E-16 ) ) ;
#104 = FACE_OUTER_BOUND ( 'NONE', #47, .T. ) ;
#105 = CARTESIAN_POINT ( 'NONE',  ( 3.526396152231565067E-13, -1.236893267138826732E-14, 101.0000000000000000 ) ) ;
#106 = DIRECTION ( 'NONE',  ( 4.333342374871281545E-31, 1.000000000000000000, 1.219727444046192735E-16 ) ) ;
#107 = ADVANCED_FACE ( 'NONE', ( #2 ), #186, .T. ) ;
#108 = CARTESIAN_POINT ( 'NONE',  ( -1.710569414459005214E-46, 3.599999999999998757, 0.000000000000000000 ) ) ;
#109 = LOCAL_TIME ( 15, 33, 23.00000000000000000, #141 ) ;
#110 = CALENDAR_DATE ( 2023, 28, 9 ) ;
#111 = APPROVAL_STATUS ( 'not_yet_approved' ) ;
#112 = VERTEX_POINT ( 'NONE', #6 ) ;
#113 = ORIENTED_EDGE ( 'NONE', *, *, #172, .T. ) ;
#114 = DIRECTION ( 'NONE',  ( 1.000000000000000000, 0.000000000000000000, 0.000000000000000000 ) ) ;
#115 = CIRCLE ( 'NONE', #64, 2.400000000000003464 ) ;
#116 = CC_DESIGN_PERSON_AND_ORGANIZATION_ASSIGNMENT ( #78, #153, ( #102 ) ) ;
#117 = CALENDAR_DATE ( 2023, 28, 9 ) ;
#118 = EDGE_CURVE ( 'NONE', #231, #231, #180, .T. ) ;
#119 = ORIENTED_EDGE ( 'NONE', *, *, #43, .F. ) ;
#120 = EDGE_LOOP ( 'NONE', ( #83 ) ) ;
#121 = EDGE_LOOP ( 'NONE', ( #119 ) ) ;
#122 = PLANE ( 'NONE',  #71 ) ;
#123 = CARTESIAN_POINT ( 'NONE',  ( 5.586370142149013368E-14, -1.959434878635765131E-15, 16.00000000000000000 ) ) ;
#124 = CARTESIAN_POINT ( 'NONE',  ( 3.526396152231565067E-13, -1.236893267138826732E-14, 101.0000000000000000 ) ) ;
#125 = CONICAL_SURFACE ( 'NONE', #240, 2.400000000000003464, 0.7853981633974335130 ) ;
#126 = DIRECTION ( 'NONE',  ( -3.491481338843133355E-15, 1.224646799147353207E-16, -1.000000000000000000 ) ) ;
#127 = DIRECTION ( 'NONE',  ( -3.491481338843133355E-15, 1.224646799147353207E-16, -1.000000000000000000 ) ) ;
#128 = CLOSED_SHELL ( 'NONE', ( #184, #160, #216, #165, #27 ) ) ;
#129 =( GEOMETRIC_REPRESENTATION_CONTEXT ( 3 ) GLOBAL_UNCERTAINTY_ASSIGNED_CONTEXT ( ( #178 ) ) GLOBAL_UNIT_ASSIGNED_CONTEXT ( ( #170, #194, #213 ) ) REPRESENTATION_CONTEXT ( 'NONE', 'WORKASPACE' ) );
#130 = VERTEX_POINT ( 'NONE', #192 ) ;
#131 = CARTESIAN_POINT ( 'NONE',  ( 0.000000000000000000, 0.000000000000000000, 0.000000000000000000 ) ) ;
#132 = AXIS2_PLACEMENT_3D ( 'NONE', #99, #221, #55 ) ;
#133 = PERSON_AND_ORGANIZATION ( #66, #147 ) ;
#134 = CARTESIAN_POINT ( 'NONE',  ( 5.586370142149013368E-14, 3.999999999999998224, 16.00000000000000000 ) ) ;
#135 = CC_DESIGN_DATE_AND_TIME_ASSIGNMENT ( #38, #228, ( #210 ) ) ;
#136 = PERSON_AND_ORGANIZATION_ROLE ( 'design_owner' ) ;
#137 = ORIENTED_EDGE ( 'NONE', *, *, #172, .F. ) ;
#138 = DATE_AND_TIME ( #143, #37 ) ;
#139 = APPROVAL_PERSON_ORGANIZATION ( #179, #212, #203 ) ;
#140 = EDGE_LOOP ( 'NONE', ( #46 ) ) ;
#141 = COORDINATED_UNIVERSAL_TIME_OFFSET ( 1, 0, .AHEAD. ) ;
#142 = DIRECTION ( 'NONE',  ( -4.275831445896958607E-31, -1.000000000000000000, -1.224646799147353207E-16 ) ) ;
#143 = CALENDAR_DATE ( 2023, 28, 9 ) ;
#144 = FACE_OUTER_BOUND ( 'NONE', #100, .T. ) ;
#145 = CARTESIAN_POINT ( 'NONE',  ( 0.000000000000000000, 0.000000000000000000, 0.000000000000000000 ) ) ;
#146 = DIRECTION ( 'NONE',  ( 0.000000000000000000, 1.000000000000000000, 0.000000000000000000 ) ) ;
#147 = ORGANIZATION ( 'UNSPECIFIED', 'UNSPECIFIED', '' ) ;
#148 = DIRECTION ( 'NONE',  ( -3.491481338843133355E-15, 1.224646799147353207E-16, -1.000000000000000000 ) ) ;
#149 = CARTESIAN_POINT ( 'NONE',  ( 1.396592535537250976E-15, 3.999999999999999112, 0.3999999999999993006 ) ) ;
#150 = ADVANCED_FACE ( 'NONE', ( #34 ), #122, .T. ) ;
#151 = APPROVAL_DATE_TIME ( #59, #95 ) ;
#152 = AXIS2_PLACEMENT_3D ( 'NONE', #93, #185, #202 ) ;
#153 = PERSON_AND_ORGANIZATION_ROLE ( 'classification_officer' ) ;
#154 = ADVANCED_FACE ( 'NONE', ( #224, #182 ), #60, .T. ) ;
#155 = CARTESIAN_POINT ( 'NONE',  ( 6.191112449404509185E-14, 2.999999999999988010, 17.73205080756888918 ) ) ;
#156 = DESIGN_CONTEXT ( 'detailed design', #45, 'design' ) ;
#157 = EDGE_LOOP ( 'NONE', ( #113 ) ) ;
#158 = CIRCLE ( 'NONE', #54, 3.599999999999998757 ) ;
#159 = ORIENTED_EDGE ( 'NONE', *, *, #61, .F. ) ;
#160 = ADVANCED_FACE ( 'NONE', ( #92, #144 ), #36, .T. ) ;
#161 = DIRECTION ( 'NONE',  ( -3.491481338843133355E-15, 1.224646799147353207E-16, -1.000000000000000000 ) ) ;
#162 = FACE_OUTER_BOUND ( 'NONE', #140, .T. ) ;
#163 = AXIS2_PLACEMENT_3D ( 'NONE', #131, #82, #114 ) ;
#164 = DIRECTION ( 'NONE',  ( -3.491481338843133355E-15, 1.224646799147353207E-16, -1.000000000000000000 ) ) ;
#165 = ADVANCED_FACE ( 'NONE', ( #67, #223 ), #125, .T. ) ;
#166 = DIRECTION ( 'NONE',  ( -3.491481338843133355E-15, 1.224646799147353207E-16, -1.000000000000000000 ) ) ;
#167 = CARTESIAN_POINT ( 'NONE',  ( 0.000000000000000000, 0.000000000000000000, 0.000000000000000000 ) ) ;
#168 = CYLINDRICAL_SURFACE ( 'NONE', #12, 2.999999999999996447 ) ;
#169 = APPROVAL_ROLE ( '' ) ;
#170 =( LENGTH_UNIT ( ) NAMED_UNIT ( * ) SI_UNIT ( .MILLI., .METRE. ) );
#171 = PERSON_AND_ORGANIZATION_ROLE ( 'design_supplier' ) ;
#172 = EDGE_CURVE ( 'NONE', #112, #112, #115, .T. ) ;
#173 = CARTESIAN_POINT ( 'NONE',  ( 3.505447264198505131E-13, -1.229545386343942402E-14, 100.3999999999999915 ) ) ;
#174 = AXIS2_PLACEMENT_3D ( 'NONE', #56, #164, #222 ) ;
#175 = VERTEX_POINT ( 'NONE', #155 ) ;
#176 = DATE_AND_TIME ( #117, #73 ) ;
#177 = ORIENTED_EDGE ( 'NONE', *, *, #20, .F. ) ;
#178 = UNCERTAINTY_MEASURE_WITH_UNIT (LENGTH_MEASURE( 1.000000000000000082E-05 ), #170, 'distance_accuracy_value', 'NONE');
#179 = PERSON_AND_ORGANIZATION ( #66, #147 ) ;
#180 = CIRCLE ( 'NONE', #209, 3.999999999999999112 ) ;
#181 = ORIENTED_EDGE ( 'NONE', *, *, #188, .F. ) ;
#182 = FACE_BOUND ( 'NONE', #25, .T. ) ;
#183 = CARTESIAN_POINT ( 'NONE',  ( 1.396592535537249201E-15, -4.898587196589398900E-17, 0.3999999999999988010 ) ) ;
#184 = ADVANCED_FACE ( 'NONE', ( #162 ), #239, .F. ) ;
#185 = DIRECTION ( 'NONE',  ( 3.491481338843133355E-15, -1.224646799147353207E-16, 1.000000000000000000 ) ) ;
#186 = PLANE ( 'NONE',  #39 ) ;
#187 = VERTEX_POINT ( 'NONE', #19 ) ;
#188 = EDGE_CURVE ( 'NONE', #175, #175, #204, .T. ) ;
#189 = CC_DESIGN_DATE_AND_TIME_ASSIGNMENT ( #217, #30, ( #102 ) ) ;
#190 = APPROVAL_STATUS ( 'not_yet_approved' ) ;
#191 = VERTEX_POINT ( 'NONE', #134 ) ;
#192 = CARTESIAN_POINT ( 'NONE',  ( 5.586370142149013368E-14, 3.999999999999998224, 16.00000000000000000 ) ) ;
#193 = EDGE_LOOP ( 'NONE', ( #236 ) ) ;
#194 =( NAMED_UNIT ( * ) PLANE_ANGLE_UNIT ( ) SI_UNIT ( $, .RADIAN. ) );
#195 = CIRCLE ( 'NONE', #21, 4.000000000000000000 ) ;
#196 = FACE_OUTER_BOUND ( 'NONE', #97, .T. ) ;
#197 = EDGE_LOOP ( 'NONE', ( #233 ) ) ;
#198 = COORDINATED_UNIVERSAL_TIME_OFFSET ( 1, 0, .AHEAD. ) ;
#199 = ORIENTED_EDGE ( 'NONE', *, *, #3, .F. ) ;
#200 = AXIS2_PLACEMENT_3D ( 'NONE', #18, #53, #31 ) ;
#201 = DIRECTION ( 'NONE',  ( -3.491481338843133355E-15, 1.224646799147353207E-16, -1.000000000000000000 ) ) ;
#202 = DIRECTION ( 'NONE',  ( -4.275831445896958607E-31, -1.000000000000000000, -1.224646799147353207E-16 ) ) ;
#203 = APPROVAL_ROLE ( '' ) ;
#204 = CIRCLE ( 'NONE', #79, 2.999999999999990230 ) ;
#205 = DIRECTION ( 'NONE',  ( 4.275831445896958607E-31, 1.000000000000000000, 1.224646799147353207E-16 ) ) ;
#206 = DIRECTION ( 'NONE',  ( 3.491481338843133355E-15, -1.224646799147353207E-16, 1.000000000000000000 ) ) ;
#207 = CC_DESIGN_PERSON_AND_ORGANIZATION_ASSIGNMENT ( #24, #171, ( #235 ) ) ;
#208 = COORDINATED_UNIVERSAL_TIME_OFFSET ( 1, 0, .AHEAD. ) ;
#209 = AXIS2_PLACEMENT_3D ( 'NONE', #183, #48, #106 ) ;
#210 = PRODUCT_DEFINITION ( 'UNKNOWN', '', #235, #156 ) ;
#211 = PERSON_AND_ORGANIZATION ( #66, #147 ) ;
#212 = APPROVAL ( #101, 'UNSPECIFIED' ) ;
#213 =( NAMED_UNIT ( * ) SI_UNIT ( $, .STERADIAN. ) SOLID_ANGLE_UNIT ( ) );
#214 = APPLICATION_PROTOCOL_DEFINITION ( 'international standard', 'config_control_design', 1994, #45 ) ;
#215 = APPROVAL_PERSON_ORGANIZATION ( #133, #26, #23 ) ;
#216 = ADVANCED_FACE ( 'NONE', ( #104, #16 ), #168, .T. ) ;
#217 = DATE_AND_TIME ( #220, #109 ) ;
#218 = ORIENTED_EDGE ( 'NONE', *, *, #3, .T. ) ;
#219 = CLOSED_SHELL ( 'NONE', ( #229, #150, #107, #154 ) ) ;
#220 = CALENDAR_DATE ( 2023, 28, 9 ) ;
#221 = DIRECTION ( 'NONE',  ( -3.491481338843133355E-15, 1.224646799147353207E-16, -1.000000000000000000 ) ) ;
#222 = DIRECTION ( 'NONE',  ( 0.000000000000000000, 1.000000000000000000, 0.000000000000000000 ) ) ;
#223 = FACE_BOUND ( 'NONE', #157, .T. ) ;
#224 = FACE_OUTER_BOUND ( 'NONE', #197, .T. ) ;
#225 = CC_DESIGN_PERSON_AND_ORGANIZATION_ASSIGNMENT ( #227, #58, ( #210 ) ) ;
#226 = APPROVAL_PERSON_ORGANIZATION ( #5, #95, #169 ) ;
#227 = PERSON_AND_ORGANIZATION ( #66, #147 ) ;
#228 = DATE_TIME_ROLE ( 'creation_date' ) ;
#229 = ADVANCED_FACE ( 'NONE', ( #242, #72 ), #69, .T. ) ;
#230 = PRODUCT_RELATED_PRODUCT_CATEGORY ( 'detail', '', ( #40 ) ) ;
#231 = VERTEX_POINT ( 'NONE', #149 ) ;
#232 = MECHANICAL_CONTEXT ( 'NONE', #77, 'mechanical' ) ;
#233 = ORIENTED_EDGE ( 'NONE', *, *, #118, .T. ) ;
#234 = AXIS2_PLACEMENT_3D ( 'NONE', #173, #8, #81 ) ;
#235 = PRODUCT_DEFINITION_FORMATION_WITH_SPECIFIED_SOURCE ( 'ANY', '', #40, .NOT_KNOWN. ) ;
#236 = ORIENTED_EDGE ( 'NONE', *, *, #43, .T. ) ;
#237 = PRODUCT_DEFINITION_SHAPE ( 'NONE', 'NONE',  #210 ) ;
#238 = DIRECTION ( 'NONE',  ( 4.275831445896958607E-31, 1.000000000000000000, 1.224646799147353207E-16 ) ) ;
#239 = PLANE ( 'NONE',  #152 ) ;
#240 = AXIS2_PLACEMENT_3D ( 'NONE', #124, #51, #33 ) ;
#241 = DIRECTION ( 'NONE',  ( 4.275831445896958607E-31, 1.000000000000000000, 1.224646799147353207E-16 ) ) ;
#242 = FACE_OUTER_BOUND ( 'NONE', #193, .T. ) ;
#243 = DIRECTION ( 'NONE',  ( -3.491481338843133355E-15, 1.224646799147353207E-16, -1.000000000000000000 ) ) ;
ENDSEC;
END-ISO-10303-21;
