ISO-10303-21;
HEADER;
FILE_DESCRIPTION (( 'STEP AP203' ),
    '1' );
FILE_NAME ('342231.step',
    '2023-09-28T13:33:23',
    ( '' ),
    ( '' ),
    'SwSTEP 2.0',
    'SolidWorks 2022',
    '' );
FILE_SCHEMA (( 'CONFIG_CONTROL_DESIGN' ));
ENDSEC;

DATA;
#1 = DIRECTION ( 'NONE',  ( 0.000000000000000000, 0.000000000000000000, 1.000000000000000000 ) ) ;
#2 = AXIS2_PLACEMENT_3D ( 'NONE', #112, #202, #37 ) ;
#3 = PERSON_AND_ORGANIZATION ( #199, #39 ) ;
#4 = ORIENTED_EDGE ( 'NONE', *, *, #139, .T. ) ;
#5 = EDGE_CURVE ( 'NONE', #188, #188, #206, .T. ) ;
#6 = COORDINATED_UNIVERSAL_TIME_OFFSET ( 1, 0, .AHEAD. ) ;
#7 = EDGE_LOOP ( 'NONE', ( #9 ) ) ;
#8 = PERSON_AND_ORGANIZATION ( #199, #39 ) ;
#9 = ORIENTED_EDGE ( 'NONE', *, *, #139, .F. ) ;
#10 = ADVANCED_FACE ( 'NONE', ( #181, #180 ), #195, .T. ) ;
#11 = CLOSED_SHELL ( 'NONE', ( #10, #57, #243, #166 ) ) ;
#12 = AXIS2_PLACEMENT_3D ( 'NONE', #235, #78, #122 ) ;
#13 = EDGE_LOOP ( 'NONE', ( #125 ) ) ;
#14 = APPLICATION_CONTEXT ( 'configuration controlled 3d designs of mechanical parts and assemblies' ) ;
#15 = DIRECTION ( 'NONE',  ( -3.491481338843133355E-15, 1.224646799147353207E-16, -1.000000000000000000 ) ) ;
#16 = DESIGN_CONTEXT ( 'detailed design', #14, 'design' ) ;
#17 = CARTESIAN_POINT ( 'NONE',  ( 0.000000000000000000, 0.000000000000000000, 0.000000000000000000 ) ) ;
#18 = DIRECTION ( 'NONE',  ( 3.491481338843133355E-15, -1.224646799147353207E-16, 1.000000000000000000 ) ) ;
#19 = AXIS2_PLACEMENT_3D ( 'NONE', #183, #40, #185 ) ;
#20 = FACE_BOUND ( 'NONE', #140, .T. ) ;
#21 = EDGE_CURVE ( 'NONE', #69, #69, #126, .T. ) ;
#22 = PLANE ( 'NONE',  #151 ) ;
#23 = AXIS2_PLACEMENT_3D ( 'NONE', #29, #164, #201 ) ;
#24 = EDGE_LOOP ( 'NONE', ( #92 ) ) ;
#25 = VERTEX_POINT ( 'NONE', #154 ) ;
#26 = CARTESIAN_POINT ( 'NONE',  ( 0.000000000000000000, 0.000000000000000000, 0.000000000000000000 ) ) ;
#27 = APPROVAL_DATE_TIME ( #191, #227 ) ;
#28 = EDGE_CURVE ( 'NONE', #86, #86, #157, .T. ) ;
#29 = CARTESIAN_POINT ( 'NONE',  ( 5.586370142149013368E-14, -1.959434878635765131E-15, 16.00000000000000000 ) ) ;
#30 = CALENDAR_DATE ( 2023, 28, 9 ) ;
#31 = FACE_OUTER_BOUND ( 'NONE', #144, .T. ) ;
#32 = EDGE_LOOP ( 'NONE', ( #76 ) ) ;
#33 = ORIENTED_EDGE ( 'NONE', *, *, #21, .F. ) ;
#34 = AXIS2_PLACEMENT_3D ( 'NONE', #215, #49, #35 ) ;
#35 = DIRECTION ( 'NONE',  ( 4.275831445896959482E-31, 1.000000000000000000, 1.224646799147353207E-16 ) ) ;
#36 = DIRECTION ( 'NONE',  ( -3.491481338843133355E-15, 1.224646799147353207E-16, -1.000000000000000000 ) ) ;
#37 = DIRECTION ( 'NONE',  ( 0.000000000000000000, 1.000000000000000000, 0.000000000000000000 ) ) ;
#38 = LOCAL_TIME ( 15, 33, 23.00000000000000000, #116 ) ;
#39 = ORGANIZATION ( 'UNSPECIFIED', 'UNSPECIFIED', '' ) ;
#40 = DIRECTION ( 'NONE',  ( 3.491481338843133355E-15, -1.224646799147353207E-16, 1.000000000000000000 ) ) ;
#41 = PERSON_AND_ORGANIZATION ( #199, #39 ) ;
#42 = APPROVAL_ROLE ( '' ) ;
#43 = ADVANCED_BREP_SHAPE_REPRESENTATION ( '342231', ( #53, #129, #190 ), #59 ) ;
#44 = MECHANICAL_CONTEXT ( 'NONE', #232, 'mechanical' ) ;
#45 = DATE_AND_TIME ( #209, #50 ) ;
#46 = AXIS2_PLACEMENT_3D ( 'NONE', #17, #58, #127 ) ;
#47 = DIRECTION ( 'NONE',  ( 1.000000000000000000, 0.000000000000000000, 0.000000000000000000 ) ) ;
#48 = EDGE_CURVE ( 'NONE', #25, #25, #167, .T. ) ;
#49 = DIRECTION ( 'NONE',  ( -3.491481338843133355E-15, 1.224646799147353207E-16, -1.000000000000000000 ) ) ;
#50 = LOCAL_TIME ( 15, 33, 23.00000000000000000, #136 ) ;
#51 = CIRCLE ( 'NONE', #214, 3.000000000000002665 ) ;
#52 = ORIENTED_EDGE ( 'NONE', *, *, #5, .T. ) ;
#53 = MANIFOLD_SOLID_BREP ( 'Corps-Déplacer/Copier1[1]', #64 ) ;
#54 = ORIENTED_EDGE ( 'NONE', *, *, #221, .F. ) ;
#55 = AXIS2_PLACEMENT_3D ( 'NONE', #163, #15, #94 ) ;
#56 = FACE_OUTER_BOUND ( 'NONE', #24, .T. ) ;
#57 = ADVANCED_FACE ( 'NONE', ( #89 ), #147, .T. ) ;
#58 = DIRECTION ( 'NONE',  ( -3.491481338843133355E-15, 1.224646799147353207E-16, -1.000000000000000000 ) ) ;
#59 =( GEOMETRIC_REPRESENTATION_CONTEXT ( 3 ) GLOBAL_UNCERTAINTY_ASSIGNED_CONTEXT ( ( #79 ) ) GLOBAL_UNIT_ASSIGNED_CONTEXT ( ( #172, #155, #63 ) ) REPRESENTATION_CONTEXT ( 'NONE', 'WORKASPACE' ) );
#60 = CONICAL_SURFACE ( 'NONE', #187, 2.400000000000003464, 0.7853981633974335130 ) ;
#61 = ADVANCED_FACE ( 'NONE', ( #31, #110 ), #60, .T. ) ;
#62 = DIRECTION ( 'NONE',  ( 0.000000000000000000, 1.000000000000000000, 0.000000000000000000 ) ) ;
#63 =( NAMED_UNIT ( * ) SI_UNIT ( $, .STERADIAN. ) SOLID_ANGLE_UNIT ( ) );
#64 = CLOSED_SHELL ( 'NONE', ( #217, #103, #134, #61, #146 ) ) ;
#65 = PERSON_AND_ORGANIZATION ( #199, #39 ) ;
#66 = EDGE_LOOP ( 'NONE', ( #33 ) ) ;
#67 = VERTEX_POINT ( 'NONE', #171 ) ;
#68 = COORDINATED_UNIVERSAL_TIME_OFFSET ( 1, 0, .AHEAD. ) ;
#69 = VERTEX_POINT ( 'NONE', #205 ) ;
#70 = LOCAL_TIME ( 15, 33, 23.00000000000000000, #231 ) ;
#71 = PERSON_AND_ORGANIZATION ( #199, #39 ) ;
#72 = DATE_AND_TIME ( #213, #70 ) ;
#73 = ORIENTED_EDGE ( 'NONE', *, *, #21, .T. ) ;
#74 = PERSON_AND_ORGANIZATION ( #199, #39 ) ;
#75 = AXIS2_PLACEMENT_3D ( 'NONE', #95, #18, #133 ) ;
#76 = ORIENTED_EDGE ( 'NONE', *, *, #221, .T. ) ;
#77 = ORIENTED_EDGE ( 'NONE', *, *, #28, .T. ) ;
#78 = DIRECTION ( 'NONE',  ( -3.491481338843133355E-15, 1.224646799147353207E-16, -1.000000000000000000 ) ) ;
#79 = UNCERTAINTY_MEASURE_WITH_UNIT (LENGTH_MEASURE( 1.000000000000000082E-05 ), #172, 'distance_accuracy_value', 'NONE');
#80 = PRODUCT ( '342231', '342231', '', ( #44 ) ) ;
#81 = AXIS2_PLACEMENT_3D ( 'NONE', #238, #240, #62 ) ;
#82 = DIRECTION ( 'NONE',  ( 0.000000000000000000, 1.000000000000000000, 0.000000000000000000 ) ) ;
#83 = FACE_OUTER_BOUND ( 'NONE', #7, .T. ) ;
#84 = CARTESIAN_POINT ( 'NONE',  ( 5.586370142149013368E-14, 3.994999999999998330, 16.00000000000000000 ) ) ;
#85 = CC_DESIGN_PERSON_AND_ORGANIZATION_ASSIGNMENT ( #175, #118, ( #230 ) ) ;
#86 = VERTEX_POINT ( 'NONE', #152 ) ;
#87 = PRODUCT_DEFINITION ( 'UNKNOWN', '', #230, #16 ) ;
#88 = PERSON_AND_ORGANIZATION_ROLE ( 'design_supplier' ) ;
#89 = FACE_OUTER_BOUND ( 'NONE', #211, .T. ) ;
#90 = CARTESIAN_POINT ( 'NONE',  ( 3.526396152231565067E-13, -1.236893267138826732E-14, 101.0000000000000000 ) ) ;
#91 = DATE_AND_TIME ( #30, #173 ) ;
#92 = ORIENTED_EDGE ( 'NONE', *, *, #48, .F. ) ;
#93 = EDGE_LOOP ( 'NONE', ( #73 ) ) ;
#94 = DIRECTION ( 'NONE',  ( 4.275831445896958607E-31, 1.000000000000000000, 1.224646799147352961E-16 ) ) ;
#95 = CARTESIAN_POINT ( 'NONE',  ( -1.537161404799956031E-30, 5.391636418669376403E-32, -4.402605242934732797E-16 ) ) ;
#96 = CC_DESIGN_PERSON_AND_ORGANIZATION_ASSIGNMENT ( #74, #124, ( #142 ) ) ;
#97 = AXIS2_PLACEMENT_3D ( 'NONE', #170, #218, #150 ) ;
#98 = DIRECTION ( 'NONE',  ( -3.491481338843133355E-15, 1.224646799147353207E-16, -1.000000000000000000 ) ) ;
#99 = CYLINDRICAL_SURFACE ( 'NONE', #46, 2.999999999999996447 ) ;
#100 = CC_DESIGN_DATE_AND_TIME_ASSIGNMENT ( #45, #226, ( #87 ) ) ;
#101 = FACE_OUTER_BOUND ( 'NONE', #234, .T. ) ;
#102 = DIRECTION ( 'NONE',  ( 4.275831445896958607E-31, 1.000000000000000000, 1.224646799147353207E-16 ) ) ;
#103 = ADVANCED_FACE ( 'NONE', ( #20, #101 ), #168, .T. ) ;
#104 = CALENDAR_DATE ( 2023, 28, 9 ) ;
#105 = APPROVAL_DATE_TIME ( #108, #220 ) ;
#106 = APPROVAL_PERSON_ORGANIZATION ( #41, #220, #225 ) ;
#107 = PERSON_AND_ORGANIZATION_ROLE ( 'creator' ) ;
#108 = DATE_AND_TIME ( #137, #121 ) ;
#109 = CARTESIAN_POINT ( 'NONE',  ( 5.586370142149013368E-14, 2.995770165867058628E-32, 16.00000000000000000 ) ) ;
#110 = FACE_BOUND ( 'NONE', #145, .T. ) ;
#111 = ORIENTED_EDGE ( 'NONE', *, *, #5, .F. ) ;
#112 = CARTESIAN_POINT ( 'NONE',  ( 5.586370142149013368E-14, -1.959434878635765131E-15, 16.00000000000000000 ) ) ;
#113 = PLANE ( 'NONE',  #19 ) ;
#114 = CIRCLE ( 'NONE', #2, 3.995000000000000107 ) ;
#115 = DIRECTION ( 'NONE',  ( -3.491481338843133355E-15, 1.224646799147353207E-16, -1.000000000000000000 ) ) ;
#116 = COORDINATED_UNIVERSAL_TIME_OFFSET ( 1, 0, .AHEAD. ) ;
#117 = CARTESIAN_POINT ( 'NONE',  ( 3.526396152231565067E-13, 2.399999999999990585, 101.0000000000000000 ) ) ;
#118 = PERSON_AND_ORGANIZATION_ROLE ( 'creator' ) ;
#119 = ORIENTED_EDGE ( 'NONE', *, *, #176, .T. ) ;
#120 = DIRECTION ( 'NONE',  ( -4.275831445896958607E-31, -1.000000000000000000, -1.224646799147353207E-16 ) ) ;
#121 = LOCAL_TIME ( 15, 33, 23.00000000000000000, #68 ) ;
#122 = DIRECTION ( 'NONE',  ( 0.000000000000000000, 1.000000000000000000, 0.000000000000000000 ) ) ;
#123 = ORIENTED_EDGE ( 'NONE', *, *, #176, .F. ) ;
#124 = PERSON_AND_ORGANIZATION_ROLE ( 'classification_officer' ) ;
#125 = ORIENTED_EDGE ( 'NONE', *, *, #28, .F. ) ;
#126 = CIRCLE ( 'NONE', #219, 3.994999999999999218 ) ;
#127 = DIRECTION ( 'NONE',  ( 4.275831445896958607E-31, 1.000000000000000000, 1.224646799147353207E-16 ) ) ;
#128 = PLANE ( 'NONE',  #97 ) ;
#129 = MANIFOLD_SOLID_BREP ( 'Corps-Déplacer/Copier1[2]', #11 ) ;
#130 = CARTESIAN_POINT ( 'NONE',  ( 5.586370142149013368E-14, -1.959434878635765131E-15, 16.00000000000000000 ) ) ;
#131 = CC_DESIGN_APPROVAL ( #220, ( #87 ) ) ;
#132 = DIRECTION ( 'NONE',  ( 0.000000000000000000, 1.000000000000000000, 0.000000000000000000 ) ) ;
#133 = DIRECTION ( 'NONE',  ( -4.275831445896958607E-31, -1.000000000000000000, -1.224646799147352961E-16 ) ) ;
#134 = ADVANCED_FACE ( 'NONE', ( #56, #148 ), #99, .T. ) ;
#135 = CC_DESIGN_PERSON_AND_ORGANIZATION_ASSIGNMENT ( #8, #88, ( #230 ) ) ;
#136 = COORDINATED_UNIVERSAL_TIME_OFFSET ( 1, 0, .AHEAD. ) ;
#137 = CALENDAR_DATE ( 2023, 28, 9 ) ;
#138 = PERSON_AND_ORGANIZATION ( #199, #39 ) ;
#139 = EDGE_CURVE ( 'NONE', #177, #177, #153, .T. ) ;
#140 = EDGE_LOOP ( 'NONE', ( #216 ) ) ;
#141 = SHAPE_DEFINITION_REPRESENTATION ( #236, #43 ) ;
#142 = SECURITY_CLASSIFICATION ( '', '', #160 ) ;
#143 = APPROVAL_PERSON_ORGANIZATION ( #71, #239, #162 ) ;
#144 = EDGE_LOOP ( 'NONE', ( #54 ) ) ;
#145 = EDGE_LOOP ( 'NONE', ( #4 ) ) ;
#146 = ADVANCED_FACE ( 'NONE', ( #83 ), #128, .F. ) ;
#147 = PLANE ( 'NONE',  #229 ) ;
#148 = FACE_OUTER_BOUND ( 'NONE', #32, .T. ) ;
#149 = FACE_OUTER_BOUND ( 'NONE', #233, .T. ) ;
#150 = DIRECTION ( 'NONE',  ( 4.275831445896958607E-31, 1.000000000000000000, 1.224646799147353207E-16 ) ) ;
#151 = AXIS2_PLACEMENT_3D ( 'NONE', #203, #115, #102 ) ;
#152 = CARTESIAN_POINT ( 'NONE',  ( 1.710569414459005214E-46, 3.594999999999998863, 0.000000000000000000 ) ) ;
#153 = CIRCLE ( 'NONE', #81, 2.400000000000003464 ) ;
#154 = CARTESIAN_POINT ( 'NONE',  ( 6.188088737868232312E-14, 2.999999999999988010, 17.72339055353104698 ) ) ;
#155 =( NAMED_UNIT ( * ) PLANE_ANGLE_UNIT ( ) SI_UNIT ( $, .RADIAN. ) );
#156 = APPLICATION_PROTOCOL_DEFINITION ( 'international standard', 'config_control_design', 1994, #14 ) ;
#157 = CIRCLE ( 'NONE', #55, 3.594999999999998863 ) ;
#158 = APPROVAL_DATE_TIME ( #72, #239 ) ;
#159 = CC_DESIGN_PERSON_AND_ORGANIZATION_ASSIGNMENT ( #3, #189, ( #80 ) ) ;
#160 = SECURITY_CLASSIFICATION_LEVEL ( 'unclassified' ) ;
#161 = DIRECTION ( 'NONE',  ( -3.491481338843133355E-15, 1.224646799147353207E-16, -1.000000000000000000 ) ) ;
#162 = APPROVAL_ROLE ( '' ) ;
#163 = CARTESIAN_POINT ( 'NONE',  ( -1.537161404799956031E-30, 5.391636418669376403E-32, -4.402605242934732797E-16 ) ) ;
#164 = DIRECTION ( 'NONE',  ( -3.491481338843133355E-15, 1.224646799147353207E-16, -1.000000000000000000 ) ) ;
#165 = CARTESIAN_POINT ( 'NONE',  ( 3.505447264198505131E-13, -1.229545386343942402E-14, 100.3999999999999915 ) ) ;
#166 = ADVANCED_FACE ( 'NONE', ( #241, #237 ), #169, .T. ) ;
#167 = CIRCLE ( 'NONE', #12, 2.999999999999990230 ) ;
#168 = CONICAL_SURFACE ( 'NONE', #194, 3.995000000000000107, 0.5235987755983001479 ) ;
#169 = CONICAL_SURFACE ( 'NONE', #75, 3.594999999999998863, 0.7853981633974500554 ) ;
#170 = CARTESIAN_POINT ( 'NONE',  ( 3.526396152231565067E-13, 1.799711739194212982E-32, 101.0000000000000000 ) ) ;
#171 = CARTESIAN_POINT ( 'NONE',  ( 3.505447264198505131E-13, 2.999999999999990674, 100.3999999999999915 ) ) ;
#172 =( LENGTH_UNIT ( ) NAMED_UNIT ( * ) SI_UNIT ( .MILLI., .METRE. ) );
#173 = LOCAL_TIME ( 15, 33, 23.00000000000000000, #6 ) ;
#174 = APPROVAL_STATUS ( 'not_yet_approved' ) ;
#175 = PERSON_AND_ORGANIZATION ( #199, #39 ) ;
#176 = EDGE_CURVE ( 'NONE', #210, #210, #114, .T. ) ;
#177 = VERTEX_POINT ( 'NONE', #117 ) ;
#178 = DIRECTION ( 'NONE',  ( 3.491481338843133355E-15, -1.224646799147353207E-16, 1.000000000000000000 ) ) ;
#179 = APPROVAL_STATUS ( 'not_yet_approved' ) ;
#180 = FACE_OUTER_BOUND ( 'NONE', #66, .T. ) ;
#181 = FACE_OUTER_BOUND ( 'NONE', #198, .T. ) ;
#182 = DIRECTION ( 'NONE',  ( 4.338765832161483460E-31, 1.000000000000000000, 1.221254011560643556E-16 ) ) ;
#183 = CARTESIAN_POINT ( 'NONE',  ( 5.586370142149013368E-14, 2.995770165867058628E-32, 16.00000000000000000 ) ) ;
#184 = CC_DESIGN_DATE_AND_TIME_ASSIGNMENT ( #91, #200, ( #142 ) ) ;
#185 = DIRECTION ( 'NONE',  ( -4.275831445896958607E-31, -1.000000000000000000, -1.224646799147353207E-16 ) ) ;
#186 = CC_DESIGN_APPROVAL ( #239, ( #142 ) ) ;
#187 = AXIS2_PLACEMENT_3D ( 'NONE', #90, #161, #132 ) ;
#188 = VERTEX_POINT ( 'NONE', #192 ) ;
#189 = PERSON_AND_ORGANIZATION_ROLE ( 'design_owner' ) ;
#190 = AXIS2_PLACEMENT_3D ( 'NONE', #26, #1, #47 ) ;
#191 = DATE_AND_TIME ( #104, #38 ) ;
#192 = CARTESIAN_POINT ( 'NONE',  ( 5.586370142149013368E-14, 3.994999999999998330, 16.00000000000000000 ) ) ;
#193 = DIRECTION ( 'NONE',  ( -3.491481338843133355E-15, 1.224646799147353207E-16, -1.000000000000000000 ) ) ;
#194 = AXIS2_PLACEMENT_3D ( 'NONE', #130, #36, #242 ) ;
#195 = CYLINDRICAL_SURFACE ( 'NONE', #34, 3.995000000000000107 ) ;
#196 = CARTESIAN_POINT ( 'NONE',  ( 1.396592535537249201E-15, -4.898587196589398900E-17, 0.3999999999999988010 ) ) ;
#197 = PRODUCT_RELATED_PRODUCT_CATEGORY ( 'detail', '', ( #80 ) ) ;
#198 = EDGE_LOOP ( 'NONE', ( #52 ) ) ;
#199 = PERSON ( 'UNSPECIFIED', 'UNSPECIFIED', 'UNSPECIFIED', ('UNSPECIFIED'), ('UNSPECIFIED'), ('UNSPECIFIED') ) ;
#200 = DATE_TIME_ROLE ( 'classification_date' ) ;
#201 = DIRECTION ( 'NONE',  ( 0.000000000000000000, 1.000000000000000000, 0.000000000000000000 ) ) ;
#202 = DIRECTION ( 'NONE',  ( -3.491481338843133355E-15, 1.224646799147353207E-16, -1.000000000000000000 ) ) ;
#203 = CARTESIAN_POINT ( 'NONE',  ( -7.685807023999780157E-31, 2.695818209334688202E-32, -2.201302621467366398E-16 ) ) ;
#204 = FACE_OUTER_BOUND ( 'NONE', #222, .T. ) ;
#205 = CARTESIAN_POINT ( 'NONE',  ( 1.396592535537250976E-15, 3.994999999999999218, 0.3999999999999993006 ) ) ;
#206 = CIRCLE ( 'NONE', #23, 3.995000000000000107 ) ;
#207 = APPROVAL_STATUS ( 'not_yet_approved' ) ;
#208 = APPLICATION_PROTOCOL_DEFINITION ( 'international standard', 'config_control_design', 1994, #232 ) ;
#209 = CALENDAR_DATE ( 2023, 28, 9 ) ;
#210 = VERTEX_POINT ( 'NONE', #84 ) ;
#211 = EDGE_LOOP ( 'NONE', ( #111 ) ) ;
#212 = CC_DESIGN_APPROVAL ( #227, ( #230 ) ) ;
#213 = CALENDAR_DATE ( 2023, 28, 9 ) ;
#214 = AXIS2_PLACEMENT_3D ( 'NONE', #165, #98, #82 ) ;
#215 = CARTESIAN_POINT ( 'NONE',  ( 0.000000000000000000, 0.000000000000000000, 0.000000000000000000 ) ) ;
#216 = ORIENTED_EDGE ( 'NONE', *, *, #48, .T. ) ;
#217 = ADVANCED_FACE ( 'NONE', ( #204 ), #113, .F. ) ;
#218 = DIRECTION ( 'NONE',  ( -3.491481338843133355E-15, 1.224646799147353207E-16, -1.000000000000000000 ) ) ;
#219 = AXIS2_PLACEMENT_3D ( 'NONE', #196, #193, #182 ) ;
#220 = APPROVAL ( #174, 'UNSPECIFIED' ) ;
#221 = EDGE_CURVE ( 'NONE', #67, #67, #51, .T. ) ;
#222 = EDGE_LOOP ( 'NONE', ( #119 ) ) ;
#223 = APPROVAL_PERSON_ORGANIZATION ( #138, #227, #42 ) ;
#224 = CC_DESIGN_PERSON_AND_ORGANIZATION_ASSIGNMENT ( #65, #107, ( #87 ) ) ;
#225 = APPROVAL_ROLE ( '' ) ;
#226 = DATE_TIME_ROLE ( 'creation_date' ) ;
#227 = APPROVAL ( #207, 'UNSPECIFIED' ) ;
#228 = CC_DESIGN_SECURITY_CLASSIFICATION ( #142, ( #230 ) ) ;
#229 = AXIS2_PLACEMENT_3D ( 'NONE', #109, #178, #120 ) ;
#230 = PRODUCT_DEFINITION_FORMATION_WITH_SPECIFIED_SOURCE ( 'ANY', '', #80, .NOT_KNOWN. ) ;
#231 = COORDINATED_UNIVERSAL_TIME_OFFSET ( 1, 0, .AHEAD. ) ;
#232 = APPLICATION_CONTEXT ( 'configuration controlled 3d designs of mechanical parts and assemblies' ) ;
#233 = EDGE_LOOP ( 'NONE', ( #77 ) ) ;
#234 = EDGE_LOOP ( 'NONE', ( #123 ) ) ;
#235 = CARTESIAN_POINT ( 'NONE',  ( 6.188088737868232312E-14, -2.170489351142023294E-15, 17.72339055353104698 ) ) ;
#236 = PRODUCT_DEFINITION_SHAPE ( 'NONE', 'NONE',  #87 ) ;
#237 = FACE_BOUND ( 'NONE', #13, .T. ) ;
#238 = CARTESIAN_POINT ( 'NONE',  ( 3.526396152231565067E-13, -1.236893267138826732E-14, 101.0000000000000000 ) ) ;
#239 = APPROVAL ( #179, 'UNSPECIFIED' ) ;
#240 = DIRECTION ( 'NONE',  ( -3.491481338843133355E-15, 1.224646799147353207E-16, -1.000000000000000000 ) ) ;
#241 = FACE_OUTER_BOUND ( 'NONE', #93, .T. ) ;
#242 = DIRECTION ( 'NONE',  ( 0.000000000000000000, 1.000000000000000000, 0.000000000000000000 ) ) ;
#243 = ADVANCED_FACE ( 'NONE', ( #149 ), #22, .T. ) ;
ENDSEC;
END-ISO-10303-21;
