ISO-10303-21;
HEADER;
FILE_DESCRIPTION (( 'STEP AP203' ),
    '1' );
FILE_NAME ('342230.step',
    '2023-09-28T13:33:22',
    ( '' ),
    ( '' ),
    'SwSTEP 2.0',
    'SolidWorks 2022',
    '' );
FILE_SCHEMA (( 'CONFIG_CONTROL_DESIGN' ));
ENDSEC;

DATA;
#1 = CALENDAR_DATE ( 2023, 28, 9 ) ;
#2 = VERTEX_POINT ( 'NONE', #223 ) ;
#3 =( GEOMETRIC_REPRESENTATION_CONTEXT ( 3 ) GLOBAL_UNCERTAINTY_ASSIGNED_CONTEXT ( ( #26 ) ) GLOBAL_UNIT_ASSIGNED_CONTEXT ( ( #225, #141, #197 ) ) REPRESENTATION_CONTEXT ( 'NONE', 'WORKASPACE' ) );
#4 = CC_DESIGN_PERSON_AND_ORGANIZATION_ASSIGNMENT ( #92, #127, ( #76 ) ) ;
#5 = CARTESIAN_POINT ( 'NONE',  ( 0.000000000000000000, 0.000000000000000000, 0.000000000000000000 ) ) ;
#6 = FACE_OUTER_BOUND ( 'NONE', #235, .T. ) ;
#7 = SECURITY_CLASSIFICATION_LEVEL ( 'unclassified' ) ;
#8 = ORIENTED_EDGE ( 'NONE', *, *, #63, .F. ) ;
#9 = EDGE_CURVE ( 'NONE', #195, #195, #132, .T. ) ;
#10 = DIRECTION ( 'NONE',  ( 0.000000000000000000, 1.000000000000000000, 0.000000000000000000 ) ) ;
#11 = ORIENTED_EDGE ( 'NONE', *, *, #148, .F. ) ;
#12 = ADVANCED_FACE ( 'NONE', ( #80 ), #14, .T. ) ;
#13 = CIRCLE ( 'NONE', #50, 3.000000000000002665 ) ;
#14 = PLANE ( 'NONE',  #17 ) ;
#15 = EDGE_LOOP ( 'NONE', ( #28 ) ) ;
#16 = CARTESIAN_POINT ( 'NONE',  ( 6.185065026331954176E-14, -2.169428775903298250E-15, 17.71473029949320122 ) ) ;
#17 = AXIS2_PLACEMENT_3D ( 'NONE', #218, #154, #82 ) ;
#18 = DIRECTION ( 'NONE',  ( -4.275831445896958607E-31, -1.000000000000000000, -1.224646799147353207E-16 ) ) ;
#19 = CIRCLE ( 'NONE', #158, 2.999999999999990230 ) ;
#20 = DIRECTION ( 'NONE',  ( 0.000000000000000000, 1.000000000000000000, 0.000000000000000000 ) ) ;
#21 = EDGE_CURVE ( 'NONE', #2, #2, #23, .T. ) ;
#22 = DIRECTION ( 'NONE',  ( -3.491481338843133355E-15, 1.224646799147353207E-16, -1.000000000000000000 ) ) ;
#23 = CIRCLE ( 'NONE', #164, 3.990000000000000657 ) ;
#24 = APPROVAL ( #182, 'UNSPECIFIED' ) ;
#25 = COORDINATED_UNIVERSAL_TIME_OFFSET ( 1, 0, .AHEAD. ) ;
#26 = UNCERTAINTY_MEASURE_WITH_UNIT (LENGTH_MEASURE( 1.000000000000000082E-05 ), #225, 'distance_accuracy_value', 'NONE');
#27 = PERSON_AND_ORGANIZATION_ROLE ( 'creator' ) ;
#28 = ORIENTED_EDGE ( 'NONE', *, *, #198, .T. ) ;
#29 = VERTEX_POINT ( 'NONE', #105 ) ;
#30 = AXIS2_PLACEMENT_3D ( 'NONE', #155, #199, #90 ) ;
#31 = CARTESIAN_POINT ( 'NONE',  ( 3.526396152231565067E-13, 1.799711739194212982E-32, 101.0000000000000000 ) ) ;
#32 = ADVANCED_FACE ( 'NONE', ( #185, #219 ), #131, .T. ) ;
#33 = CARTESIAN_POINT ( 'NONE',  ( 0.000000000000000000, 0.000000000000000000, 0.000000000000000000 ) ) ;
#34 = AXIS2_PLACEMENT_3D ( 'NONE', #192, #101, #62 ) ;
#35 = EDGE_LOOP ( 'NONE', ( #75 ) ) ;
#36 = ORIENTED_EDGE ( 'NONE', *, *, #148, .T. ) ;
#37 = PERSON_AND_ORGANIZATION_ROLE ( 'design_supplier' ) ;
#38 = ORIENTED_EDGE ( 'NONE', *, *, #21, .T. ) ;
#39 = CLOSED_SHELL ( 'NONE', ( #140, #220, #12, #224 ) ) ;
#40 = FACE_BOUND ( 'NONE', #15, .T. ) ;
#41 = CARTESIAN_POINT ( 'NONE',  ( -1.535023489077007560E-30, 5.384137619756067608E-32, -4.396482008938996414E-16 ) ) ;
#42 = CARTESIAN_POINT ( 'NONE',  ( 3.505447264198505131E-13, -1.229545386343942402E-14, 100.3999999999999915 ) ) ;
#43 = LOCAL_TIME ( 15, 33, 22.00000000000000000, #88 ) ;
#44 = ORGANIZATION ( 'UNSPECIFIED', 'UNSPECIFIED', '' ) ;
#45 = CARTESIAN_POINT ( 'NONE',  ( 3.526396152231565067E-13, -1.236893267138826732E-14, 101.0000000000000000 ) ) ;
#46 = CC_DESIGN_DATE_AND_TIME_ASSIGNMENT ( #212, #47, ( #121 ) ) ;
#47 = DATE_TIME_ROLE ( 'creation_date' ) ;
#48 = CARTESIAN_POINT ( 'NONE',  ( 1.710569414459005214E-46, 3.589999999999998970, 0.000000000000000000 ) ) ;
#49 = VERTEX_POINT ( 'NONE', #227 ) ;
#50 = AXIS2_PLACEMENT_3D ( 'NONE', #42, #133, #64 ) ;
#51 = APPLICATION_PROTOCOL_DEFINITION ( 'international standard', 'config_control_design', 1994, #163 ) ;
#52 = ADVANCED_FACE ( 'NONE', ( #40, #169 ), #193, .T. ) ;
#53 = FACE_OUTER_BOUND ( 'NONE', #56, .T. ) ;
#54 = CIRCLE ( 'NONE', #167, 3.990000000000000657 ) ;
#55 = CALENDAR_DATE ( 2023, 28, 9 ) ;
#56 = EDGE_LOOP ( 'NONE', ( #110 ) ) ;
#57 = APPROVAL_ROLE ( '' ) ;
#58 = ORIENTED_EDGE ( 'NONE', *, *, #63, .T. ) ;
#59 = FACE_OUTER_BOUND ( 'NONE', #125, .T. ) ;
#60 = MANIFOLD_SOLID_BREP ( 'Corps-Déplacer/Copier1[2]', #39 ) ;
#61 = ADVANCED_FACE ( 'NONE', ( #53 ), #165, .F. ) ;
#62 = DIRECTION ( 'NONE',  ( -4.275831445896958607E-31, -1.000000000000000000, -1.224646799147353207E-16 ) ) ;
#63 = EDGE_CURVE ( 'NONE', #65, #65, #168, .T. ) ;
#64 = DIRECTION ( 'NONE',  ( 0.000000000000000000, 1.000000000000000000, 0.000000000000000000 ) ) ;
#65 = VERTEX_POINT ( 'NONE', #70 ) ;
#66 = CLOSED_SHELL ( 'NONE', ( #61, #52, #32, #171, #243 ) ) ;
#67 = COORDINATED_UNIVERSAL_TIME_OFFSET ( 1, 0, .AHEAD. ) ;
#68 = APPLICATION_PROTOCOL_DEFINITION ( 'international standard', 'config_control_design', 1994, #86 ) ;
#69 = DIRECTION ( 'NONE',  ( 1.000000000000000000, 0.000000000000000000, 0.000000000000000000 ) ) ;
#70 = CARTESIAN_POINT ( 'NONE',  ( 5.586370142149013368E-14, 3.989999999999998881, 16.00000000000000000 ) ) ;
#71 = APPROVAL_DATE_TIME ( #189, #236 ) ;
#72 = CC_DESIGN_PERSON_AND_ORGANIZATION_ASSIGNMENT ( #146, #215, ( #237 ) ) ;
#73 = ADVANCED_BREP_SHAPE_REPRESENTATION ( '342230', ( #138, #60, #217 ), #3 ) ;
#74 = PERSON_AND_ORGANIZATION ( #214, #44 ) ;
#75 = ORIENTED_EDGE ( 'NONE', *, *, #198, .F. ) ;
#76 = SECURITY_CLASSIFICATION ( '', '', #7 ) ;
#77 = APPROVAL ( #186, 'UNSPECIFIED' ) ;
#78 = APPROVAL_DATE_TIME ( #147, #77 ) ;
#79 = APPROVAL_PERSON_ORGANIZATION ( #109, #24, #159 ) ;
#80 = FACE_OUTER_BOUND ( 'NONE', #128, .T. ) ;
#81 = DIRECTION ( 'NONE',  ( 4.344202882076471454E-31, 1.000000000000000000, 1.222784405058839476E-16 ) ) ;
#82 = DIRECTION ( 'NONE',  ( 4.275831445896958607E-31, 1.000000000000000000, 1.224646799147353207E-16 ) ) ;
#83 = AXIS2_PLACEMENT_3D ( 'NONE', #241, #208, #240 ) ;
#84 = DIRECTION ( 'NONE',  ( -4.275831445896958607E-31, -1.000000000000000000, -1.224646799147353207E-16 ) ) ;
#85 = DIRECTION ( 'NONE',  ( 0.000000000000000000, 1.000000000000000000, 0.000000000000000000 ) ) ;
#86 = APPLICATION_CONTEXT ( 'configuration controlled 3d designs of mechanical parts and assemblies' ) ;
#87 = PERSON_AND_ORGANIZATION ( #214, #44 ) ;
#88 = COORDINATED_UNIVERSAL_TIME_OFFSET ( 1, 0, .AHEAD. ) ;
#89 = AXIS2_PLACEMENT_3D ( 'NONE', #31, #123, #180 ) ;
#90 = DIRECTION ( 'NONE',  ( 0.000000000000000000, 1.000000000000000000, 0.000000000000000000 ) ) ;
#91 = DIRECTION ( 'NONE',  ( -3.491481338843133355E-15, 1.224646799147353207E-16, -1.000000000000000000 ) ) ;
#92 = PERSON_AND_ORGANIZATION ( #214, #44 ) ;
#93 = EDGE_LOOP ( 'NONE', ( #11 ) ) ;
#94 = PERSON_AND_ORGANIZATION_ROLE ( 'creator' ) ;
#95 = DIRECTION ( 'NONE',  ( -3.491481338843133355E-15, 1.224646799147353207E-16, -1.000000000000000000 ) ) ;
#96 = ORIENTED_EDGE ( 'NONE', *, *, #21, .F. ) ;
#97 = DIRECTION ( 'NONE',  ( -3.491481338843133355E-15, 1.224646799147353207E-16, -1.000000000000000000 ) ) ;
#98 = CONICAL_SURFACE ( 'NONE', #150, 2.400000000000003464, 0.7853981633974335130 ) ;
#99 = FACE_BOUND ( 'NONE', #126, .T. ) ;
#100 = FACE_BOUND ( 'NONE', #204, .T. ) ;
#101 = DIRECTION ( 'NONE',  ( 3.491481338843133355E-15, -1.224646799147353207E-16, 1.000000000000000000 ) ) ;
#102 = DESIGN_CONTEXT ( 'detailed design', #163, 'design' ) ;
#103 = DATE_AND_TIME ( #1, #226 ) ;
#104 = EDGE_CURVE ( 'NONE', #145, #145, #201, .T. ) ;
#105 = CARTESIAN_POINT ( 'NONE',  ( 3.505447264198505131E-13, 2.999999999999990674, 100.3999999999999915 ) ) ;
#106 = VERTEX_POINT ( 'NONE', #124 ) ;
#107 = CC_DESIGN_APPROVAL ( #24, ( #121 ) ) ;
#108 = PLANE ( 'NONE',  #89 ) ;
#109 = PERSON_AND_ORGANIZATION ( #214, #44 ) ;
#110 = ORIENTED_EDGE ( 'NONE', *, *, #181, .T. ) ;
#111 = CALENDAR_DATE ( 2023, 28, 9 ) ;
#112 = EDGE_LOOP ( 'NONE', ( #38 ) ) ;
#113 = DATE_TIME_ROLE ( 'classification_date' ) ;
#114 = ORIENTED_EDGE ( 'NONE', *, *, #181, .F. ) ;
#115 = EDGE_LOOP ( 'NONE', ( #114 ) ) ;
#116 = CC_DESIGN_APPROVAL ( #77, ( #76 ) ) ;
#117 = CARTESIAN_POINT ( 'NONE',  ( 5.586370142149013368E-14, -1.959434878635765131E-15, 16.00000000000000000 ) ) ;
#118 = DIRECTION ( 'NONE',  ( 3.491481338843133355E-15, -1.224646799147353207E-16, 1.000000000000000000 ) ) ;
#119 = APPROVAL_PERSON_ORGANIZATION ( #122, #236, #178 ) ;
#120 = DIRECTION ( 'NONE',  ( 0.000000000000000000, 1.000000000000000000, 0.000000000000000000 ) ) ;
#121 = PRODUCT_DEFINITION ( 'UNKNOWN', '', #216, #102 ) ;
#122 = PERSON_AND_ORGANIZATION ( #214, #44 ) ;
#123 = DIRECTION ( 'NONE',  ( -3.491481338843133355E-15, 1.224646799147353207E-16, -1.000000000000000000 ) ) ;
#124 = CARTESIAN_POINT ( 'NONE',  ( 6.185065026331954176E-14, 2.999999999999988010, 17.71473029949320122 ) ) ;
#125 = EDGE_LOOP ( 'NONE', ( #96 ) ) ;
#126 = EDGE_LOOP ( 'NONE', ( #190 ) ) ;
#127 = PERSON_AND_ORGANIZATION_ROLE ( 'classification_officer' ) ;
#128 = EDGE_LOOP ( 'NONE', ( #152 ) ) ;
#129 = COORDINATED_UNIVERSAL_TIME_OFFSET ( 1, 0, .AHEAD. ) ;
#130 = EDGE_LOOP ( 'NONE', ( #36 ) ) ;
#131 = CYLINDRICAL_SURFACE ( 'NONE', #229, 2.999999999999996447 ) ;
#132 = CIRCLE ( 'NONE', #172, 2.400000000000003464 ) ;
#133 = DIRECTION ( 'NONE',  ( -3.491481338843133355E-15, 1.224646799147353207E-16, -1.000000000000000000 ) ) ;
#134 = DIRECTION ( 'NONE',  ( -3.491481338843133355E-15, 1.224646799147353207E-16, -1.000000000000000000 ) ) ;
#135 = DIRECTION ( 'NONE',  ( -3.491481338843133355E-15, 1.224646799147353207E-16, -1.000000000000000000 ) ) ;
#136 = LOCAL_TIME ( 15, 33, 22.00000000000000000, #67 ) ;
#137 = FACE_OUTER_BOUND ( 'NONE', #234, .T. ) ;
#138 = MANIFOLD_SOLID_BREP ( 'Corps-Déplacer/Copier1[1]', #66 ) ;
#139 = FACE_OUTER_BOUND ( 'NONE', #93, .T. ) ;
#140 = ADVANCED_FACE ( 'NONE', ( #137, #59 ), #207, .T. ) ;
#141 =( NAMED_UNIT ( * ) PLANE_ANGLE_UNIT ( ) SI_UNIT ( $, .RADIAN. ) );
#142 = CC_DESIGN_PERSON_AND_ORGANIZATION_ASSIGNMENT ( #166, #37, ( #216 ) ) ;
#143 = CALENDAR_DATE ( 2023, 28, 9 ) ;
#144 = DIRECTION ( 'NONE',  ( 0.000000000000000000, 0.000000000000000000, 1.000000000000000000 ) ) ;
#145 = VERTEX_POINT ( 'NONE', #48 ) ;
#146 = PERSON_AND_ORGANIZATION ( #214, #44 ) ;
#147 = DATE_AND_TIME ( #111, #160 ) ;
#148 = EDGE_CURVE ( 'NONE', #29, #29, #13, .T. ) ;
#149 = DIRECTION ( 'NONE',  ( 4.275831445896958607E-31, 1.000000000000000000, 1.224646799147353207E-16 ) ) ;
#150 = AXIS2_PLACEMENT_3D ( 'NONE', #45, #135, #211 ) ;
#151 = APPROVAL_PERSON_ORGANIZATION ( #74, #77, #57 ) ;
#152 = ORIENTED_EDGE ( 'NONE', *, *, #104, .T. ) ;
#153 = SHAPE_DEFINITION_REPRESENTATION ( #222, #73 ) ;
#154 = DIRECTION ( 'NONE',  ( -3.491481338843133355E-15, 1.224646799147353207E-16, -1.000000000000000000 ) ) ;
#155 = CARTESIAN_POINT ( 'NONE',  ( 5.586370142149013368E-14, -1.959434878635765131E-15, 16.00000000000000000 ) ) ;
#156 = FACE_OUTER_BOUND ( 'NONE', #112, .T. ) ;
#157 = CARTESIAN_POINT ( 'NONE',  ( -1.535023489077007560E-30, 5.384137619756067608E-32, -4.396482008938996414E-16 ) ) ;
#158 = AXIS2_PLACEMENT_3D ( 'NONE', #16, #97, #85 ) ;
#159 = APPROVAL_ROLE ( '' ) ;
#160 = LOCAL_TIME ( 15, 33, 22.00000000000000000, #129 ) ;
#161 = AXIS2_PLACEMENT_3D ( 'NONE', #41, #221, #242 ) ;
#162 = CALENDAR_DATE ( 2023, 28, 9 ) ;
#163 = APPLICATION_CONTEXT ( 'configuration controlled 3d designs of mechanical parts and assemblies' ) ;
#164 = AXIS2_PLACEMENT_3D ( 'NONE', #184, #95, #81 ) ;
#165 = PLANE ( 'NONE',  #34 ) ;
#166 = PERSON_AND_ORGANIZATION ( #214, #44 ) ;
#167 = AXIS2_PLACEMENT_3D ( 'NONE', #117, #22, #120 ) ;
#168 = CIRCLE ( 'NONE', #173, 3.990000000000000657 ) ;
#169 = FACE_OUTER_BOUND ( 'NONE', #115, .T. ) ;
#170 = FACE_OUTER_BOUND ( 'NONE', #203, .T. ) ;
#171 = ADVANCED_FACE ( 'NONE', ( #139, #100 ), #98, .T. ) ;
#172 = AXIS2_PLACEMENT_3D ( 'NONE', #233, #202, #10 ) ;
#173 = AXIS2_PLACEMENT_3D ( 'NONE', #175, #134, #20 ) ;
#174 = CC_DESIGN_PERSON_AND_ORGANIZATION_ASSIGNMENT ( #232, #94, ( #216 ) ) ;
#175 = CARTESIAN_POINT ( 'NONE',  ( 5.586370142149013368E-14, -1.959434878635765131E-15, 16.00000000000000000 ) ) ;
#176 = LOCAL_TIME ( 15, 33, 22.00000000000000000, #205 ) ;
#177 = APPROVAL_DATE_TIME ( #103, #24 ) ;
#178 = APPROVAL_ROLE ( '' ) ;
#179 = CC_DESIGN_APPROVAL ( #236, ( #216 ) ) ;
#180 = DIRECTION ( 'NONE',  ( 4.275831445896958607E-31, 1.000000000000000000, 1.224646799147353207E-16 ) ) ;
#181 = EDGE_CURVE ( 'NONE', #49, #49, #54, .T. ) ;
#182 = APPROVAL_STATUS ( 'not_yet_approved' ) ;
#183 = CC_DESIGN_PERSON_AND_ORGANIZATION_ASSIGNMENT ( #87, #27, ( #121 ) ) ;
#184 = CARTESIAN_POINT ( 'NONE',  ( 1.396592535537247031E-15, -4.898587196589390889E-17, 0.3999999999999981903 ) ) ;
#185 = FACE_OUTER_BOUND ( 'NONE', #35, .T. ) ;
#186 = APPROVAL_STATUS ( 'not_yet_approved' ) ;
#187 = ORIENTED_EDGE ( 'NONE', *, *, #9, .F. ) ;
#188 = DATE_AND_TIME ( #55, #176 ) ;
#189 = DATE_AND_TIME ( #162, #43 ) ;
#190 = ORIENTED_EDGE ( 'NONE', *, *, #104, .F. ) ;
#191 = CARTESIAN_POINT ( 'NONE',  ( 5.586370142149013368E-14, 2.992020766410403683E-32, 16.00000000000000000 ) ) ;
#192 = CARTESIAN_POINT ( 'NONE',  ( 5.586370142149013368E-14, 2.992020766410403683E-32, 16.00000000000000000 ) ) ;
#193 = CONICAL_SURFACE ( 'NONE', #30, 3.990000000000000657, 0.5235987755982999259 ) ;
#194 = APPROVAL_STATUS ( 'not_yet_approved' ) ;
#195 = VERTEX_POINT ( 'NONE', #228 ) ;
#196 = AXIS2_PLACEMENT_3D ( 'NONE', #157, #239, #84 ) ;
#197 =( NAMED_UNIT ( * ) SI_UNIT ( $, .STERADIAN. ) SOLID_ANGLE_UNIT ( ) );
#198 = EDGE_CURVE ( 'NONE', #106, #106, #19, .T. ) ;
#199 = DIRECTION ( 'NONE',  ( -3.491481338843133355E-15, 1.224646799147353207E-16, -1.000000000000000000 ) ) ;
#200 = CONICAL_SURFACE ( 'NONE', #196, 3.589999999999998970, 0.7853981633974519427 ) ;
#201 = CIRCLE ( 'NONE', #161, 3.589999999999998970 ) ;
#202 = DIRECTION ( 'NONE',  ( -3.491481338843133355E-15, 1.224646799147353207E-16, -1.000000000000000000 ) ) ;
#203 = EDGE_LOOP ( 'NONE', ( #8 ) ) ;
#204 = EDGE_LOOP ( 'NONE', ( #206 ) ) ;
#205 = COORDINATED_UNIVERSAL_TIME_OFFSET ( 1, 0, .AHEAD. ) ;
#206 = ORIENTED_EDGE ( 'NONE', *, *, #9, .T. ) ;
#207 = CYLINDRICAL_SURFACE ( 'NONE', #83, 3.990000000000000657 ) ;
#208 = DIRECTION ( 'NONE',  ( -3.491481338843133355E-15, 1.224646799147353207E-16, -1.000000000000000000 ) ) ;
#209 = CC_DESIGN_SECURITY_CLASSIFICATION ( #76, ( #216 ) ) ;
#210 = CC_DESIGN_DATE_AND_TIME_ASSIGNMENT ( #188, #113, ( #76 ) ) ;
#211 = DIRECTION ( 'NONE',  ( 0.000000000000000000, 1.000000000000000000, 0.000000000000000000 ) ) ;
#212 = DATE_AND_TIME ( #143, #136 ) ;
#213 = MECHANICAL_CONTEXT ( 'NONE', #86, 'mechanical' ) ;
#214 = PERSON ( 'UNSPECIFIED', 'UNSPECIFIED', 'UNSPECIFIED', ('UNSPECIFIED'), ('UNSPECIFIED'), ('UNSPECIFIED') ) ;
#215 = PERSON_AND_ORGANIZATION_ROLE ( 'design_owner' ) ;
#216 = PRODUCT_DEFINITION_FORMATION_WITH_SPECIFIED_SOURCE ( 'ANY', '', #237, .NOT_KNOWN. ) ;
#217 = AXIS2_PLACEMENT_3D ( 'NONE', #5, #144, #69 ) ;
#218 = CARTESIAN_POINT ( 'NONE',  ( -7.675117445385037800E-31, 2.692068809878033804E-32, -2.198241004469498207E-16 ) ) ;
#219 = FACE_OUTER_BOUND ( 'NONE', #130, .T. ) ;
#220 = ADVANCED_FACE ( 'NONE', ( #170 ), #238, .T. ) ;
#221 = DIRECTION ( 'NONE',  ( -3.491481338843133355E-15, 1.224646799147353207E-16, -1.000000000000000000 ) ) ;
#222 = PRODUCT_DEFINITION_SHAPE ( 'NONE', 'NONE',  #121 ) ;
#223 = CARTESIAN_POINT ( 'NONE',  ( 1.396592535537248609E-15, 3.990000000000000657, 0.3999999999999986899 ) ) ;
#224 = ADVANCED_FACE ( 'NONE', ( #156, #99 ), #200, .T. ) ;
#225 =( LENGTH_UNIT ( ) NAMED_UNIT ( * ) SI_UNIT ( .MILLI., .METRE. ) );
#226 = LOCAL_TIME ( 15, 33, 22.00000000000000000, #25 ) ;
#227 = CARTESIAN_POINT ( 'NONE',  ( 5.586370142149013368E-14, 3.989999999999998881, 16.00000000000000000 ) ) ;
#228 = CARTESIAN_POINT ( 'NONE',  ( 3.526396152231565067E-13, 2.399999999999990585, 101.0000000000000000 ) ) ;
#229 = AXIS2_PLACEMENT_3D ( 'NONE', #33, #91, #149 ) ;
#230 = PRODUCT_RELATED_PRODUCT_CATEGORY ( 'detail', '', ( #237 ) ) ;
#231 = AXIS2_PLACEMENT_3D ( 'NONE', #191, #118, #18 ) ;
#232 = PERSON_AND_ORGANIZATION ( #214, #44 ) ;
#233 = CARTESIAN_POINT ( 'NONE',  ( 3.526396152231565067E-13, -1.236893267138826732E-14, 101.0000000000000000 ) ) ;
#234 = EDGE_LOOP ( 'NONE', ( #58 ) ) ;
#235 = EDGE_LOOP ( 'NONE', ( #187 ) ) ;
#236 = APPROVAL ( #194, 'UNSPECIFIED' ) ;
#237 = PRODUCT ( '342230', '342230', '', ( #213 ) ) ;
#238 = PLANE ( 'NONE',  #231 ) ;
#239 = DIRECTION ( 'NONE',  ( 3.491481338843133355E-15, -1.224646799147353207E-16, 1.000000000000000000 ) ) ;
#240 = DIRECTION ( 'NONE',  ( 4.275831445896958607E-31, 1.000000000000000000, 1.224646799147353207E-16 ) ) ;
#241 = CARTESIAN_POINT ( 'NONE',  ( 0.000000000000000000, 0.000000000000000000, 0.000000000000000000 ) ) ;
#242 = DIRECTION ( 'NONE',  ( 4.275831445896958607E-31, 1.000000000000000000, 1.224646799147353207E-16 ) ) ;
#243 = ADVANCED_FACE ( 'NONE', ( #6 ), #108, .F. ) ;
ENDSEC;
END-ISO-10303-21;
