ISO-10303-21;
HEADER;
FILE_DESCRIPTION (( 'STEP AP203' ),
    '1' );
FILE_NAME ('342222.step',
    '2023-09-28T13:33:22',
    ( '' ),
    ( '' ),
    'SwSTEP 2.0',
    'SolidWorks 2022',
    '' );
FILE_SCHEMA (( 'CONFIG_CONTROL_DESIGN' ));
ENDSEC;

DATA;
#1 = APPROVAL ( #135, 'UNSPECIFIED' ) ;
#2 = ORIENTED_EDGE ( 'NONE', *, *, #102, .T. ) ;
#3 = DATE_AND_TIME ( #192, #88 ) ;
#4 = CLOSED_SHELL ( 'NONE', ( #65, #218, #35, #53 ) ) ;
#5 = CARTESIAN_POINT ( 'NONE',  ( 6.160875334041735404E-14, -2.160944173993499080E-15, 17.64544826719044934 ) ) ;
#6 = DIRECTION ( 'NONE',  ( 0.000000000000000000, 1.000000000000000000, 0.000000000000000000 ) ) ;
#7 = ORIENTED_EDGE ( 'NONE', *, *, #132, .T. ) ;
#8 = AXIS2_PLACEMENT_3D ( 'NONE', #127, #182, #11 ) ;
#9 = DIRECTION ( 'NONE',  ( 3.491481338843133355E-15, -1.224646799147353207E-16, 1.000000000000000000 ) ) ;
#10 = ADVANCED_FACE ( 'NONE', ( #159, #122 ), #91, .T. ) ;
#11 = DIRECTION ( 'NONE',  ( 4.275831445896958607E-31, 1.000000000000000000, 1.224646799147353207E-16 ) ) ;
#12 = MANIFOLD_SOLID_BREP ( 'Corps-Déplacer/Copier1[2]', #4 ) ;
#13 = DIRECTION ( 'NONE',  ( -3.491481338843133355E-15, 1.224646799147353207E-16, -1.000000000000000000 ) ) ;
#14 = EDGE_CURVE ( 'NONE', #101, #101, #25, .T. ) ;
#15 = AXIS2_PLACEMENT_3D ( 'NONE', #136, #66, #99 ) ;
#16 = DIRECTION ( 'NONE',  ( 4.388194809996233656E-31, 1.000000000000000000, 1.235167031945511399E-16 ) ) ;
#17 = FACE_OUTER_BOUND ( 'NONE', #29, .T. ) ;
#18 = CARTESIAN_POINT ( 'NONE',  ( 0.000000000000000000, 0.000000000000000000, 0.000000000000000000 ) ) ;
#19 = CLOSED_SHELL ( 'NONE', ( #146, #10, #23, #169, #137 ) ) ;
#20 = CIRCLE ( 'NONE', #41, 3.950000000000000178 ) ;
#21 = CC_DESIGN_APPROVAL ( #97, ( #115 ) ) ;
#22 = COORDINATED_UNIVERSAL_TIME_OFFSET ( 1, 0, .AHEAD. ) ;
#23 = ADVANCED_FACE ( 'NONE', ( #212, #193 ), #162, .T. ) ;
#24 = CARTESIAN_POINT ( 'NONE',  ( 3.505447264198505131E-13, 2.999999999999990674, 100.3999999999999915 ) ) ;
#25 = CIRCLE ( 'NONE', #120, 2.999999999999990230 ) ;
#26 = AXIS2_PLACEMENT_3D ( 'NONE', #81, #9, #216 ) ;
#27 = EDGE_LOOP ( 'NONE', ( #191 ) ) ;
#28 = DATE_AND_TIME ( #106, #172 ) ;
#29 = EDGE_LOOP ( 'NONE', ( #7 ) ) ;
#30 = PERSON ( 'UNSPECIFIED', 'UNSPECIFIED', 'UNSPECIFIED', ('UNSPECIFIED'), ('UNSPECIFIED'), ('UNSPECIFIED') ) ;
#31 = EDGE_LOOP ( 'NONE', ( #225 ) ) ;
#32 = AXIS2_PLACEMENT_3D ( 'NONE', #150, #217, #194 ) ;
#33 = APPROVAL_DATE_TIME ( #28, #1 ) ;
#34 = EDGE_LOOP ( 'NONE', ( #176 ) ) ;
#35 = ADVANCED_FACE ( 'NONE', ( #112 ), #236, .T. ) ;
#36 = FACE_OUTER_BOUND ( 'NONE', #227, .T. ) ;
#37 = AXIS2_PLACEMENT_3D ( 'NONE', #110, #180, #92 ) ;
#38 = DIRECTION ( 'NONE',  ( 3.491481338843133355E-15, -1.224646799147353207E-16, 1.000000000000000000 ) ) ;
#39 = CARTESIAN_POINT ( 'NONE',  ( 5.586370142149013368E-14, -1.959434878635765131E-15, 16.00000000000000000 ) ) ;
#40 = DIRECTION ( 'NONE',  ( 3.491481338843133355E-15, -1.224646799147353207E-16, 1.000000000000000000 ) ) ;
#41 = AXIS2_PLACEMENT_3D ( 'NONE', #39, #163, #78 ) ;
#42 = DIRECTION ( 'NONE',  ( 4.275831445896958607E-31, 1.000000000000000000, 1.224646799147353207E-16 ) ) ;
#43 = APPROVAL_PERSON_ORGANIZATION ( #140, #97, #121 ) ;
#44 = CC_DESIGN_APPROVAL ( #1, ( #139 ) ) ;
#45 = CARTESIAN_POINT ( 'NONE',  ( 3.505447264198505131E-13, -1.229545386343942402E-14, 100.3999999999999915 ) ) ;
#46 = AXIS2_PLACEMENT_3D ( 'NONE', #129, #198, #42 ) ;
#47 = CALENDAR_DATE ( 2023, 28, 9 ) ;
#48 = EDGE_LOOP ( 'NONE', ( #177 ) ) ;
#49 = CC_DESIGN_PERSON_AND_ORGANIZATION_ASSIGNMENT ( #103, #123, ( #115 ) ) ;
#50 = PERSON_AND_ORGANIZATION ( #30, #55 ) ;
#51 =( GEOMETRIC_REPRESENTATION_CONTEXT ( 3 ) GLOBAL_UNCERTAINTY_ASSIGNED_CONTEXT ( ( #118 ) ) GLOBAL_UNIT_ASSIGNED_CONTEXT ( ( #220, #241, #242 ) ) REPRESENTATION_CONTEXT ( 'NONE', 'WORKASPACE' ) );
#52 = DATE_AND_TIME ( #224, #98 ) ;
#53 = ADVANCED_FACE ( 'NONE', ( #199, #54 ), #206, .T. ) ;
#54 = FACE_BOUND ( 'NONE', #31, .T. ) ;
#55 = ORGANIZATION ( 'UNSPECIFIED', 'UNSPECIFIED', '' ) ;
#56 = CARTESIAN_POINT ( 'NONE',  ( 5.586370142149013368E-14, -1.959434878635765131E-15, 16.00000000000000000 ) ) ;
#57 = PLANE ( 'NONE',  #133 ) ;
#58 = CIRCLE ( 'NONE', #37, 2.400000000000003464 ) ;
#59 = CARTESIAN_POINT ( 'NONE',  ( 1.396592535537248609E-15, 3.950000000000000178, 0.3999999999999986899 ) ) ;
#60 = EDGE_CURVE ( 'NONE', #185, #185, #76, .T. ) ;
#61 = MECHANICAL_CONTEXT ( 'NONE', #79, 'mechanical' ) ;
#62 = PERSON_AND_ORGANIZATION ( #30, #55 ) ;
#63 = CARTESIAN_POINT ( 'NONE',  ( 5.586370142149013368E-14, 3.949999999999998845, 16.00000000000000000 ) ) ;
#64 = CIRCLE ( 'NONE', #15, 3.549999999999998934 ) ;
#65 = ADVANCED_FACE ( 'NONE', ( #93, #36 ), #234, .T. ) ;
#66 = DIRECTION ( 'NONE',  ( -3.491481338843133355E-15, 1.224646799147353207E-16, -1.000000000000000000 ) ) ;
#67 = COORDINATED_UNIVERSAL_TIME_OFFSET ( 1, 0, .AHEAD. ) ;
#68 = AXIS2_PLACEMENT_3D ( 'NONE', #152, #13, #130 ) ;
#69 = PERSON_AND_ORGANIZATION ( #30, #55 ) ;
#70 = DIRECTION ( 'NONE',  ( 0.000000000000000000, 1.000000000000000000, 0.000000000000000000 ) ) ;
#71 = APPROVAL_STATUS ( 'not_yet_approved' ) ;
#72 = APPROVAL_STATUS ( 'not_yet_approved' ) ;
#73 = CARTESIAN_POINT ( 'NONE',  ( 5.586370142149013368E-14, -1.959434878635765131E-15, 16.00000000000000000 ) ) ;
#74 = ORIENTED_EDGE ( 'NONE', *, *, #14, .F. ) ;
#75 = FACE_OUTER_BOUND ( 'NONE', #190, .T. ) ;
#76 = CIRCLE ( 'NONE', #237, 3.950000000000000178 ) ;
#77 = PRODUCT_DEFINITION_SHAPE ( 'NONE', 'NONE',  #139 ) ;
#78 = DIRECTION ( 'NONE',  ( 0.000000000000000000, 1.000000000000000000, 0.000000000000000000 ) ) ;
#79 = APPLICATION_CONTEXT ( 'configuration controlled 3d designs of mechanical parts and assemblies' ) ;
#80 = FACE_OUTER_BOUND ( 'NONE', #231, .T. ) ;
#81 = CARTESIAN_POINT ( 'NONE',  ( 5.586370142149013368E-14, 2.962025570757166860E-32, 16.00000000000000000 ) ) ;
#82 = PRODUCT ( '342222', '342222', '', ( #61 ) ) ;
#83 = APPLICATION_PROTOCOL_DEFINITION ( 'international standard', 'config_control_design', 1994, #113 ) ;
#84 = CARTESIAN_POINT ( 'NONE',  ( 6.160875334041735404E-14, 2.999999999999988010, 17.64544826719044934 ) ) ;
#85 = DATE_TIME_ROLE ( 'classification_date' ) ;
#86 = EDGE_LOOP ( 'NONE', ( #188 ) ) ;
#87 = SHAPE_DEFINITION_REPRESENTATION ( #77, #238 ) ;
#88 = LOCAL_TIME ( 15, 33, 22.00000000000000000, #209 ) ;
#89 = EDGE_LOOP ( 'NONE', ( #213 ) ) ;
#90 = ORIENTED_EDGE ( 'NONE', *, *, #60, .T. ) ;
#91 = CONICAL_SURFACE ( 'NONE', #219, 3.950000000000000178, 0.5235987755982998149 ) ;
#92 = DIRECTION ( 'NONE',  ( 0.000000000000000000, 1.000000000000000000, 0.000000000000000000 ) ) ;
#93 = FACE_OUTER_BOUND ( 'NONE', #141, .T. ) ;
#94 = DIRECTION ( 'NONE',  ( -3.491481338843133355E-15, 1.224646799147353207E-16, -1.000000000000000000 ) ) ;
#95 = FACE_OUTER_BOUND ( 'NONE', #48, .T. ) ;
#96 = DIRECTION ( 'NONE',  ( 0.000000000000000000, 1.000000000000000000, 0.000000000000000000 ) ) ;
#97 = APPROVAL ( #71, 'UNSPECIFIED' ) ;
#98 = LOCAL_TIME ( 15, 33, 22.00000000000000000, #143 ) ;
#99 = DIRECTION ( 'NONE',  ( 4.275831445896958607E-31, 1.000000000000000000, 1.224646799147353207E-16 ) ) ;
#100 = MANIFOLD_SOLID_BREP ( 'Corps-Déplacer/Copier1[1]', #19 ) ;
#101 = VERTEX_POINT ( 'NONE', #84 ) ;
#102 = EDGE_CURVE ( 'NONE', #186, #186, #168, .T. ) ;
#103 = PERSON_AND_ORGANIZATION ( #30, #55 ) ;
#104 = COORDINATED_UNIVERSAL_TIME_OFFSET ( 1, 0, .AHEAD. ) ;
#105 = EDGE_LOOP ( 'NONE', ( #2 ) ) ;
#106 = CALENDAR_DATE ( 2023, 28, 9 ) ;
#107 = ORIENTED_EDGE ( 'NONE', *, *, #179, .T. ) ;
#108 = APPROVAL_DATE_TIME ( #52, #97 ) ;
#109 = AXIS2_PLACEMENT_3D ( 'NONE', #183, #40, #128 ) ;
#110 = CARTESIAN_POINT ( 'NONE',  ( 3.526396152231565067E-13, -1.236893267138826732E-14, 101.0000000000000000 ) ) ;
#111 = PLANE ( 'NONE',  #26 ) ;
#112 = FACE_OUTER_BOUND ( 'NONE', #89, .T. ) ;
#113 = APPLICATION_CONTEXT ( 'configuration controlled 3d designs of mechanical parts and assemblies' ) ;
#114 = CARTESIAN_POINT ( 'NONE',  ( 1.396592535537247031E-15, -4.898587196589390889E-17, 0.3999999999999981903 ) ) ;
#115 = PRODUCT_DEFINITION_FORMATION_WITH_SPECIFIED_SOURCE ( 'ANY', '', #82, .NOT_KNOWN. ) ;
#116 = APPROVAL ( #72, 'UNSPECIFIED' ) ;
#117 = VERTEX_POINT ( 'NONE', #174 ) ;
#118 = UNCERTAINTY_MEASURE_WITH_UNIT (LENGTH_MEASURE( 1.000000000000000082E-05 ), #220, 'distance_accuracy_value', 'NONE');
#119 = CARTESIAN_POINT ( 'NONE',  ( 5.586370142149013368E-14, 3.949999999999998845, 16.00000000000000000 ) ) ;
#120 = AXIS2_PLACEMENT_3D ( 'NONE', #5, #178, #6 ) ;
#121 = APPROVAL_ROLE ( '' ) ;
#122 = FACE_OUTER_BOUND ( 'NONE', #27, .T. ) ;
#123 = PERSON_AND_ORGANIZATION_ROLE ( 'creator' ) ;
#124 = DATE_AND_TIME ( #211, #148 ) ;
#125 = PERSON_AND_ORGANIZATION ( #30, #55 ) ;
#126 = ORIENTED_EDGE ( 'NONE', *, *, #102, .F. ) ;
#127 = CARTESIAN_POINT ( 'NONE',  ( -7.589600816467099819E-31, 2.662073614224796433E-32, -2.173748068486551444E-16 ) ) ;
#128 = DIRECTION ( 'NONE',  ( -4.275831445896957731E-31, -1.000000000000000000, -1.224646799147353207E-16 ) ) ;
#129 = CARTESIAN_POINT ( 'NONE',  ( 0.000000000000000000, 0.000000000000000000, 0.000000000000000000 ) ) ;
#130 = DIRECTION ( 'NONE',  ( 4.275831445896958607E-31, 1.000000000000000000, 1.224646799147353207E-16 ) ) ;
#131 = FACE_BOUND ( 'NONE', #161, .T. ) ;
#132 = EDGE_CURVE ( 'NONE', #134, #134, #20, .T. ) ;
#133 = AXIS2_PLACEMENT_3D ( 'NONE', #166, #235, #149 ) ;
#134 = VERTEX_POINT ( 'NONE', #119 ) ;
#135 = APPROVAL_STATUS ( 'not_yet_approved' ) ;
#136 = CARTESIAN_POINT ( 'NONE',  ( -1.517920163293419964E-30, 5.324147228449592866E-32, -4.347496136973102887E-16 ) ) ;
#137 = ADVANCED_FACE ( 'NONE', ( #95 ), #57, .F. ) ;
#138 = PERSON_AND_ORGANIZATION_ROLE ( 'classification_officer' ) ;
#139 = PRODUCT_DEFINITION ( 'UNKNOWN', '', #115, #173 ) ;
#140 = PERSON_AND_ORGANIZATION ( #30, #55 ) ;
#141 = EDGE_LOOP ( 'NONE', ( #90 ) ) ;
#142 = SECURITY_CLASSIFICATION_LEVEL ( 'unclassified' ) ;
#143 = COORDINATED_UNIVERSAL_TIME_OFFSET ( 1, 0, .AHEAD. ) ;
#144 = DIRECTION ( 'NONE',  ( -3.491481338843133355E-15, 1.224646799147353207E-16, -1.000000000000000000 ) ) ;
#145 = ORIENTED_EDGE ( 'NONE', *, *, #60, .F. ) ;
#146 = ADVANCED_FACE ( 'NONE', ( #17 ), #111, .F. ) ;
#147 = PLANE ( 'NONE',  #165 ) ;
#148 = LOCAL_TIME ( 15, 33, 22.00000000000000000, #67 ) ;
#149 = DIRECTION ( 'NONE',  ( 4.275831445896958607E-31, 1.000000000000000000, 1.224646799147353207E-16 ) ) ;
#150 = CARTESIAN_POINT ( 'NONE',  ( 3.526396152231565067E-13, -1.236893267138826732E-14, 101.0000000000000000 ) ) ;
#151 = PRODUCT_RELATED_PRODUCT_CATEGORY ( 'detail', '', ( #82 ) ) ;
#152 = CARTESIAN_POINT ( 'NONE',  ( 0.000000000000000000, 0.000000000000000000, 0.000000000000000000 ) ) ;
#153 = DIRECTION ( 'NONE',  ( 1.000000000000000000, 0.000000000000000000, 0.000000000000000000 ) ) ;
#154 = VERTEX_POINT ( 'NONE', #24 ) ;
#155 = PERSON_AND_ORGANIZATION_ROLE ( 'design_owner' ) ;
#156 = SECURITY_CLASSIFICATION ( '', '', #142 ) ;
#157 = EDGE_LOOP ( 'NONE', ( #74 ) ) ;
#158 = PERSON_AND_ORGANIZATION ( #30, #55 ) ;
#159 = FACE_BOUND ( 'NONE', #86, .T. ) ;
#160 = APPROVAL_DATE_TIME ( #3, #116 ) ;
#161 = EDGE_LOOP ( 'NONE', ( #107 ) ) ;
#162 = CYLINDRICAL_SURFACE ( 'NONE', #46, 2.999999999999996447 ) ;
#163 = DIRECTION ( 'NONE',  ( -3.491481338843133355E-15, 1.224646799147353207E-16, -1.000000000000000000 ) ) ;
#164 = AXIS2_PLACEMENT_3D ( 'NONE', #18, #167, #153 ) ;
#165 = AXIS2_PLACEMENT_3D ( 'NONE', #196, #38, #181 ) ;
#166 = CARTESIAN_POINT ( 'NONE',  ( 3.526396152231565067E-13, 1.799711739194212982E-32, 101.0000000000000000 ) ) ;
#167 = DIRECTION ( 'NONE',  ( 0.000000000000000000, 0.000000000000000000, 1.000000000000000000 ) ) ;
#168 = CIRCLE ( 'NONE', #170, 3.950000000000000178 ) ;
#169 = ADVANCED_FACE ( 'NONE', ( #80, #131 ), #221, .T. ) ;
#170 = AXIS2_PLACEMENT_3D ( 'NONE', #114, #94, #16 ) ;
#171 = AXIS2_PLACEMENT_3D ( 'NONE', #45, #200, #205 ) ;
#172 = LOCAL_TIME ( 15, 33, 22.00000000000000000, #22 ) ;
#173 = DESIGN_CONTEXT ( 'detailed design', #113, 'design' ) ;
#174 = CARTESIAN_POINT ( 'NONE',  ( -1.710569414459005214E-46, 3.549999999999998934, 0.000000000000000000 ) ) ;
#175 = DATE_AND_TIME ( #47, #195 ) ;
#176 = ORIENTED_EDGE ( 'NONE', *, *, #223, .T. ) ;
#177 = ORIENTED_EDGE ( 'NONE', *, *, #179, .F. ) ;
#178 = DIRECTION ( 'NONE',  ( -3.491481338843133355E-15, 1.224646799147353207E-16, -1.000000000000000000 ) ) ;
#179 = EDGE_CURVE ( 'NONE', #204, #204, #58, .T. ) ;
#180 = DIRECTION ( 'NONE',  ( -3.491481338843133355E-15, 1.224646799147353207E-16, -1.000000000000000000 ) ) ;
#181 = DIRECTION ( 'NONE',  ( -4.275831445896958607E-31, -1.000000000000000000, -1.224646799147353207E-16 ) ) ;
#182 = DIRECTION ( 'NONE',  ( -3.491481338843133355E-15, 1.224646799147353207E-16, -1.000000000000000000 ) ) ;
#183 = CARTESIAN_POINT ( 'NONE',  ( -1.517920163293419964E-30, 5.324147228449592866E-32, -4.347496136973102887E-16 ) ) ;
#184 = APPROVAL_PERSON_ORGANIZATION ( #50, #116, #207 ) ;
#185 = VERTEX_POINT ( 'NONE', #63 ) ;
#186 = VERTEX_POINT ( 'NONE', #59 ) ;
#187 = PERSON_AND_ORGANIZATION_ROLE ( 'design_supplier' ) ;
#188 = ORIENTED_EDGE ( 'NONE', *, *, #14, .T. ) ;
#189 = CC_DESIGN_DATE_AND_TIME_ASSIGNMENT ( #175, #85, ( #156 ) ) ;
#190 = EDGE_LOOP ( 'NONE', ( #145 ) ) ;
#191 = ORIENTED_EDGE ( 'NONE', *, *, #132, .F. ) ;
#192 = CALENDAR_DATE ( 2023, 28, 9 ) ;
#193 = FACE_OUTER_BOUND ( 'NONE', #34, .T. ) ;
#194 = DIRECTION ( 'NONE',  ( 0.000000000000000000, 1.000000000000000000, 0.000000000000000000 ) ) ;
#195 = LOCAL_TIME ( 15, 33, 22.00000000000000000, #104 ) ;
#196 = CARTESIAN_POINT ( 'NONE',  ( 5.586370142149013368E-14, 2.962025570757166860E-32, 16.00000000000000000 ) ) ;
#197 = DIRECTION ( 'NONE',  ( -3.491481338843133355E-15, 1.224646799147353207E-16, -1.000000000000000000 ) ) ;
#198 = DIRECTION ( 'NONE',  ( -3.491481338843133355E-15, 1.224646799147353207E-16, -1.000000000000000000 ) ) ;
#199 = FACE_OUTER_BOUND ( 'NONE', #105, .T. ) ;
#200 = DIRECTION ( 'NONE',  ( -3.491481338843133355E-15, 1.224646799147353207E-16, -1.000000000000000000 ) ) ;
#201 = CC_DESIGN_DATE_AND_TIME_ASSIGNMENT ( #124, #228, ( #139 ) ) ;
#202 = CARTESIAN_POINT ( 'NONE',  ( 3.526396152231565067E-13, 2.399999999999990585, 101.0000000000000000 ) ) ;
#203 = APPROVAL_ROLE ( '' ) ;
#204 = VERTEX_POINT ( 'NONE', #202 ) ;
#205 = DIRECTION ( 'NONE',  ( 0.000000000000000000, 1.000000000000000000, 0.000000000000000000 ) ) ;
#206 = CONICAL_SURFACE ( 'NONE', #109, 3.549999999999998934, 0.7853981633974519427 ) ;
#207 = APPROVAL_ROLE ( '' ) ;
#208 = CC_DESIGN_PERSON_AND_ORGANIZATION_ASSIGNMENT ( #125, #187, ( #115 ) ) ;
#209 = COORDINATED_UNIVERSAL_TIME_OFFSET ( 1, 0, .AHEAD. ) ;
#210 = ORIENTED_EDGE ( 'NONE', *, *, #223, .F. ) ;
#211 = CALENDAR_DATE ( 2023, 28, 9 ) ;
#212 = FACE_OUTER_BOUND ( 'NONE', #157, .T. ) ;
#213 = ORIENTED_EDGE ( 'NONE', *, *, #243, .T. ) ;
#214 = APPROVAL_PERSON_ORGANIZATION ( #62, #1, #203 ) ;
#215 = CC_DESIGN_SECURITY_CLASSIFICATION ( #156, ( #115 ) ) ;
#216 = DIRECTION ( 'NONE',  ( -4.275831445896958607E-31, -1.000000000000000000, -1.224646799147353207E-16 ) ) ;
#217 = DIRECTION ( 'NONE',  ( -3.491481338843133355E-15, 1.224646799147353207E-16, -1.000000000000000000 ) ) ;
#218 = ADVANCED_FACE ( 'NONE', ( #75 ), #147, .T. ) ;
#219 = AXIS2_PLACEMENT_3D ( 'NONE', #73, #144, #70 ) ;
#220 =( LENGTH_UNIT ( ) NAMED_UNIT ( * ) SI_UNIT ( .MILLI., .METRE. ) );
#221 = CONICAL_SURFACE ( 'NONE', #32, 2.400000000000003464, 0.7853981633974335130 ) ;
#222 = APPLICATION_PROTOCOL_DEFINITION ( 'international standard', 'config_control_design', 1994, #79 ) ;
#223 = EDGE_CURVE ( 'NONE', #154, #154, #230, .T. ) ;
#224 = CALENDAR_DATE ( 2023, 28, 9 ) ;
#225 = ORIENTED_EDGE ( 'NONE', *, *, #243, .F. ) ;
#226 = CC_DESIGN_PERSON_AND_ORGANIZATION_ASSIGNMENT ( #158, #229, ( #139 ) ) ;
#227 = EDGE_LOOP ( 'NONE', ( #126 ) ) ;
#228 = DATE_TIME_ROLE ( 'creation_date' ) ;
#229 = PERSON_AND_ORGANIZATION_ROLE ( 'creator' ) ;
#230 = CIRCLE ( 'NONE', #171, 3.000000000000002665 ) ;
#231 = EDGE_LOOP ( 'NONE', ( #210 ) ) ;
#232 = CC_DESIGN_PERSON_AND_ORGANIZATION_ASSIGNMENT ( #239, #155, ( #82 ) ) ;
#233 = CC_DESIGN_APPROVAL ( #116, ( #156 ) ) ;
#234 = CYLINDRICAL_SURFACE ( 'NONE', #68, 3.950000000000000178 ) ;
#235 = DIRECTION ( 'NONE',  ( -3.491481338843133355E-15, 1.224646799147353207E-16, -1.000000000000000000 ) ) ;
#236 = PLANE ( 'NONE',  #8 ) ;
#237 = AXIS2_PLACEMENT_3D ( 'NONE', #56, #197, #96 ) ;
#238 = ADVANCED_BREP_SHAPE_REPRESENTATION ( '342222', ( #100, #12, #164 ), #51 ) ;
#239 = PERSON_AND_ORGANIZATION ( #30, #55 ) ;
#240 = CC_DESIGN_PERSON_AND_ORGANIZATION_ASSIGNMENT ( #69, #138, ( #156 ) ) ;
#241 =( NAMED_UNIT ( * ) PLANE_ANGLE_UNIT ( ) SI_UNIT ( $, .RADIAN. ) );
#242 =( NAMED_UNIT ( * ) SI_UNIT ( $, .STERADIAN. ) SOLID_ANGLE_UNIT ( ) );
#243 = EDGE_CURVE ( 'NONE', #117, #117, #64, .T. ) ;
ENDSEC;
END-ISO-10303-21;
