ISO-10303-21;
HEADER;
FILE_DESCRIPTION (( 'STEP AP203' ),
    '1' );
FILE_NAME ('342212.step',
    '2023-09-28T13:33:21',
    ( '' ),
    ( '' ),
    'SwSTEP 2.0',
    'SolidWorks 2022',
    '' );
FILE_SCHEMA (( 'CONFIG_CONTROL_DESIGN' ));
ENDSEC;

DATA;
#1 = ORIENTED_EDGE ( 'NONE', *, *, #179, .F. ) ;
#2 = ADVANCED_FACE ( 'NONE', ( #144 ), #5, .T. ) ;
#3 = CC_DESIGN_SECURITY_CLASSIFICATION ( #195, ( #47 ) ) ;
#4 = DATE_AND_TIME ( #209, #153 ) ;
#5 = PLANE ( 'NONE',  #218 ) ;
#6 = ORIENTED_EDGE ( 'NONE', *, *, #225, .T. ) ;
#7 = DIRECTION ( 'NONE',  ( -3.491481338843133355E-15, 1.224646799147353207E-16, -1.000000000000000000 ) ) ;
#8 = DIRECTION ( 'NONE',  ( 0.000000000000000000, 1.000000000000000000, 0.000000000000000000 ) ) ;
#9 = CARTESIAN_POINT ( 'NONE',  ( 5.586370142149013368E-14, 3.899999999999998135, 16.00000000000000000 ) ) ;
#10 = CARTESIAN_POINT ( 'NONE',  ( 5.586370142149013368E-14, -1.959434878635765131E-15, 16.00000000000000000 ) ) ;
#11 = EDGE_CURVE ( 'NONE', #83, #83, #194, .T. ) ;
#12 = AXIS2_PLACEMENT_3D ( 'NONE', #229, #192, #99 ) ;
#13 = APPROVAL_PERSON_ORGANIZATION ( #21, #56, #93 ) ;
#14 = DIRECTION ( 'NONE',  ( -3.491481338843133355E-15, 1.224646799147353207E-16, -1.000000000000000000 ) ) ;
#15 = DIRECTION ( 'NONE',  ( 3.491481338843133355E-15, -1.224646799147353207E-16, 1.000000000000000000 ) ) ;
#16 = PERSON_AND_ORGANIZATION ( #75, #160 ) ;
#17 = AXIS2_PLACEMENT_3D ( 'NONE', #38, #15, #155 ) ;
#18 = PERSON_AND_ORGANIZATION_ROLE ( 'classification_officer' ) ;
#19 = CC_DESIGN_APPROVAL ( #82, ( #195 ) ) ;
#20 = APPROVAL_STATUS ( 'not_yet_approved' ) ;
#21 = PERSON_AND_ORGANIZATION ( #75, #160 ) ;
#22 = APPROVAL_ROLE ( '' ) ;
#23 = AXIS2_PLACEMENT_3D ( 'NONE', #10, #14, #233 ) ;
#24 = ORIENTED_EDGE ( 'NONE', *, *, #225, .F. ) ;
#25 = DIRECTION ( 'NONE',  ( -4.275831445896958607E-31, -1.000000000000000000, -1.224646799147353207E-16 ) ) ;
#26 = EDGE_LOOP ( 'NONE', ( #146 ) ) ;
#27 = DATE_TIME_ROLE ( 'classification_date' ) ;
#28 = EDGE_LOOP ( 'NONE', ( #215 ) ) ;
#29 =( GEOMETRIC_REPRESENTATION_CONTEXT ( 3 ) GLOBAL_UNCERTAINTY_ASSIGNED_CONTEXT ( ( #190 ) ) GLOBAL_UNIT_ASSIGNED_CONTEXT ( ( #223, #243, #202 ) ) REPRESENTATION_CONTEXT ( 'NONE', 'WORKASPACE' ) );
#30 = FACE_OUTER_BOUND ( 'NONE', #78, .T. ) ;
#31 = PLANE ( 'NONE',  #237 ) ;
#32 = CIRCLE ( 'NONE', #157, 3.499999999999998224 ) ;
#33 = CARTESIAN_POINT ( 'NONE',  ( 3.526396152231565067E-13, -1.236893267138826732E-14, 101.0000000000000000 ) ) ;
#34 = ADVANCED_FACE ( 'NONE', ( #166, #30 ), #86, .T. ) ;
#35 = DIRECTION ( 'NONE',  ( 4.444453717816697988E-31, 1.000000000000000000, 1.251002506714043540E-16 ) ) ;
#36 = DIRECTION ( 'NONE',  ( 4.275831445896958607E-31, 1.000000000000000000, 1.224646799147353207E-16 ) ) ;
#37 = CIRCLE ( 'NONE', #122, 3.900000000000000355 ) ;
#38 = CARTESIAN_POINT ( 'NONE',  ( -1.496541006063934724E-30, 5.249159239316498343E-32, -4.286263797015734130E-16 ) ) ;
#39 = CARTESIAN_POINT ( 'NONE',  ( 5.586370142149013368E-14, 3.899999999999998135, 16.00000000000000000 ) ) ;
#40 = VERTEX_POINT ( 'NONE', #55 ) ;
#41 = ORIENTED_EDGE ( 'NONE', *, *, #11, .F. ) ;
#42 = APPROVAL_STATUS ( 'not_yet_approved' ) ;
#43 = CC_DESIGN_DATE_AND_TIME_ASSIGNMENT ( #205, #123, ( #188 ) ) ;
#44 = AXIS2_PLACEMENT_3D ( 'NONE', #136, #88, #137 ) ;
#45 = EDGE_LOOP ( 'NONE', ( #1 ) ) ;
#46 = DIRECTION ( 'NONE',  ( -3.491481338843133355E-15, 1.224646799147353207E-16, -1.000000000000000000 ) ) ;
#47 = PRODUCT_DEFINITION_FORMATION_WITH_SPECIFIED_SOURCE ( 'ANY', '', #71, .NOT_KNOWN. ) ;
#48 = FACE_OUTER_BOUND ( 'NONE', #113, .T. ) ;
#49 = APPROVAL_PERSON_ORGANIZATION ( #167, #82, #191 ) ;
#50 = DIRECTION ( 'NONE',  ( 3.491481338843133355E-15, -1.224646799147353207E-16, 1.000000000000000000 ) ) ;
#51 = DIRECTION ( 'NONE',  ( 4.275831445896958607E-31, 1.000000000000000000, 1.224646799147353207E-16 ) ) ;
#52 = CIRCLE ( 'NONE', #158, 3.000000000000002665 ) ;
#53 = PERSON_AND_ORGANIZATION ( #75, #160 ) ;
#54 = CARTESIAN_POINT ( 'NONE',  ( 3.505447264198505131E-13, 2.999999999999990674, 100.3999999999999915 ) ) ;
#55 = CARTESIAN_POINT ( 'NONE',  ( 1.396592535537252553E-15, 3.899999999999999911, 0.3999999999999997446 ) ) ;
#56 = APPROVAL ( #42, 'UNSPECIFIED' ) ;
#57 = LOCAL_TIME ( 15, 33, 21.00000000000000000, #165 ) ;
#58 = PERSON_AND_ORGANIZATION ( #75, #160 ) ;
#59 = AXIS2_PLACEMENT_3D ( 'NONE', #85, #119, #118 ) ;
#60 = CARTESIAN_POINT ( 'NONE',  ( 0.000000000000000000, 0.000000000000000000, 0.000000000000000000 ) ) ;
#61 = PRODUCT_RELATED_PRODUCT_CATEGORY ( 'detail', '', ( #71 ) ) ;
#62 = DIRECTION ( 'NONE',  ( 3.491481338843133355E-15, -1.224646799147353207E-16, 1.000000000000000000 ) ) ;
#63 = AXIS2_PLACEMENT_3D ( 'NONE', #210, #46, #197 ) ;
#64 = DIRECTION ( 'NONE',  ( 4.275831445896958607E-31, 1.000000000000000000, 1.224646799147353207E-16 ) ) ;
#65 = CARTESIAN_POINT ( 'NONE',  ( 6.130638218678960361E-14, 2.999999999999988010, 17.55884572681200240 ) ) ;
#66 = ADVANCED_FACE ( 'NONE', ( #131, #232 ), #81, .T. ) ;
#67 = DIRECTION ( 'NONE',  ( -3.491481338843133355E-15, 1.224646799147353207E-16, -1.000000000000000000 ) ) ;
#68 = DIRECTION ( 'NONE',  ( -3.491481338843133355E-15, 1.224646799147353207E-16, -1.000000000000000000 ) ) ;
#69 = CYLINDRICAL_SURFACE ( 'NONE', #44, 2.999999999999996447 ) ;
#70 = CIRCLE ( 'NONE', #100, 3.899999999999999911 ) ;
#71 = PRODUCT ( '342212', '342212', '', ( #126 ) ) ;
#72 = APPROVAL_PERSON_ORGANIZATION ( #107, #104, #22 ) ;
#73 = SECURITY_CLASSIFICATION_LEVEL ( 'unclassified' ) ;
#74 = ADVANCED_FACE ( 'NONE', ( #132 ), #111, .T. ) ;
#75 = PERSON ( 'UNSPECIFIED', 'UNSPECIFIED', 'UNSPECIFIED', ('UNSPECIFIED'), ('UNSPECIFIED'), ('UNSPECIFIED') ) ;
#76 = DATE_AND_TIME ( #241, #92 ) ;
#77 = ORIENTED_EDGE ( 'NONE', *, *, #96, .F. ) ;
#78 = EDGE_LOOP ( 'NONE', ( #77 ) ) ;
#79 = ADVANCED_FACE ( 'NONE', ( #102 ), #120, .F. ) ;
#80 = DESIGN_CONTEXT ( 'detailed design', #114, 'design' ) ;
#81 = CYLINDRICAL_SURFACE ( 'NONE', #242, 3.899999999999999911 ) ;
#82 = APPROVAL ( #145, 'UNSPECIFIED' ) ;
#83 = VERTEX_POINT ( 'NONE', #65 ) ;
#84 = VERTEX_POINT ( 'NONE', #150 ) ;
#85 = CARTESIAN_POINT ( 'NONE',  ( 3.526396152231565067E-13, -1.236893267138826732E-14, 101.0000000000000000 ) ) ;
#86 = CONICAL_SURFACE ( 'NONE', #12, 3.900000000000000355, 0.5235987755983001479 ) ;
#87 = DIRECTION ( 'NONE',  ( -3.491481338843133355E-15, 1.224646799147353207E-16, -1.000000000000000000 ) ) ;
#88 = DIRECTION ( 'NONE',  ( -3.491481338843133355E-15, 1.224646799147353207E-16, -1.000000000000000000 ) ) ;
#89 = PERSON_AND_ORGANIZATION_ROLE ( 'creator' ) ;
#90 = EDGE_LOOP ( 'NONE', ( #6 ) ) ;
#91 = CC_DESIGN_PERSON_AND_ORGANIZATION_ASSIGNMENT ( #58, #206, ( #71 ) ) ;
#92 = LOCAL_TIME ( 15, 33, 21.00000000000000000, #164 ) ;
#93 = APPROVAL_ROLE ( '' ) ;
#94 = CALENDAR_DATE ( 2023, 28, 9 ) ;
#95 = CIRCLE ( 'NONE', #23, 3.900000000000000355 ) ;
#96 = EDGE_CURVE ( 'NONE', #133, #133, #95, .T. ) ;
#97 = SHAPE_DEFINITION_REPRESENTATION ( #238, #135 ) ;
#98 = EDGE_LOOP ( 'NONE', ( #213 ) ) ;
#99 = DIRECTION ( 'NONE',  ( 0.000000000000000000, 1.000000000000000000, 0.000000000000000000 ) ) ;
#100 = AXIS2_PLACEMENT_3D ( 'NONE', #198, #199, #35 ) ;
#101 = CARTESIAN_POINT ( 'NONE',  ( -1.496541006063934724E-30, 5.249159239316498343E-32, -4.286263797015734130E-16 ) ) ;
#102 = FACE_OUTER_BOUND ( 'NONE', #105, .T. ) ;
#103 = DIRECTION ( 'NONE',  ( 0.000000000000000000, 1.000000000000000000, 0.000000000000000000 ) ) ;
#104 = APPROVAL ( #20, 'UNSPECIFIED' ) ;
#105 = EDGE_LOOP ( 'NONE', ( #189 ) ) ;
#106 = LOCAL_TIME ( 15, 33, 21.00000000000000000, #240 ) ;
#107 = PERSON_AND_ORGANIZATION ( #75, #160 ) ;
#108 = COORDINATED_UNIVERSAL_TIME_OFFSET ( 1, 0, .AHEAD. ) ;
#109 = APPLICATION_CONTEXT ( 'configuration controlled 3d designs of mechanical parts and assemblies' ) ;
#110 = AXIS2_PLACEMENT_3D ( 'NONE', #33, #87, #173 ) ;
#111 = PLANE ( 'NONE',  #63 ) ;
#112 = CC_DESIGN_DATE_AND_TIME_ASSIGNMENT ( #231, #27, ( #195 ) ) ;
#113 = EDGE_LOOP ( 'NONE', ( #130 ) ) ;
#114 = APPLICATION_CONTEXT ( 'configuration controlled 3d designs of mechanical parts and assemblies' ) ;
#115 = ORIENTED_EDGE ( 'NONE', *, *, #179, .T. ) ;
#116 = FACE_OUTER_BOUND ( 'NONE', #90, .T. ) ;
#117 = FACE_OUTER_BOUND ( 'NONE', #203, .T. ) ;
#118 = DIRECTION ( 'NONE',  ( 0.000000000000000000, 1.000000000000000000, 0.000000000000000000 ) ) ;
#119 = DIRECTION ( 'NONE',  ( -3.491481338843133355E-15, 1.224646799147353207E-16, -1.000000000000000000 ) ) ;
#120 = PLANE ( 'NONE',  #200 ) ;
#121 = CLOSED_SHELL ( 'NONE', ( #66, #2, #74, #221 ) ) ;
#122 = AXIS2_PLACEMENT_3D ( 'NONE', #217, #68, #103 ) ;
#123 = DATE_TIME_ROLE ( 'creation_date' ) ;
#124 = MANIFOLD_SOLID_BREP ( 'Corps-Déplacer/Copier1[1]', #138 ) ;
#125 = EDGE_LOOP ( 'NONE', ( #140 ) ) ;
#126 = MECHANICAL_CONTEXT ( 'NONE', #109, 'mechanical' ) ;
#127 = MANIFOLD_SOLID_BREP ( 'Corps-Déplacer/Copier1[2]', #121 ) ;
#128 = EDGE_CURVE ( 'NONE', #84, #84, #148, .T. ) ;
#129 = VERTEX_POINT ( 'NONE', #39 ) ;
#130 = ORIENTED_EDGE ( 'NONE', *, *, #128, .F. ) ;
#131 = FACE_OUTER_BOUND ( 'NONE', #98, .T. ) ;
#132 = FACE_OUTER_BOUND ( 'NONE', #183, .T. ) ;
#133 = VERTEX_POINT ( 'NONE', #9 ) ;
#134 = DIRECTION ( 'NONE',  ( -4.275831445896958607E-31, -1.000000000000000000, -1.224646799147353207E-16 ) ) ;
#135 = ADVANCED_BREP_SHAPE_REPRESENTATION ( '342212', ( #124, #127, #184 ), #29 ) ;
#136 = CARTESIAN_POINT ( 'NONE',  ( 0.000000000000000000, 0.000000000000000000, 0.000000000000000000 ) ) ;
#137 = DIRECTION ( 'NONE',  ( 4.275831445896958607E-31, 1.000000000000000000, 1.224646799147353207E-16 ) ) ;
#138 = CLOSED_SHELL ( 'NONE', ( #79, #34, #151, #170, #176 ) ) ;
#139 = PERSON_AND_ORGANIZATION ( #75, #160 ) ;
#140 = ORIENTED_EDGE ( 'NONE', *, *, #128, .T. ) ;
#141 = CALENDAR_DATE ( 2023, 28, 9 ) ;
#142 = VERTEX_POINT ( 'NONE', #54 ) ;
#143 = CC_DESIGN_PERSON_AND_ORGANIZATION_ASSIGNMENT ( #16, #89, ( #47 ) ) ;
#144 = FACE_OUTER_BOUND ( 'NONE', #186, .T. ) ;
#145 = APPROVAL_STATUS ( 'not_yet_approved' ) ;
#146 = ORIENTED_EDGE ( 'NONE', *, *, #172, .F. ) ;
#147 = DIRECTION ( 'NONE',  ( -3.491481338843133355E-15, 1.224646799147353207E-16, -1.000000000000000000 ) ) ;
#148 = CIRCLE ( 'NONE', #110, 2.400000000000003464 ) ;
#149 = CONICAL_SURFACE ( 'NONE', #17, 3.499999999999998224, 0.7853981633974504994 ) ;
#150 = CARTESIAN_POINT ( 'NONE',  ( 3.526396152231565067E-13, 2.399999999999990585, 101.0000000000000000 ) ) ;
#151 = ADVANCED_FACE ( 'NONE', ( #117, #116 ), #69, .T. ) ;
#152 = CARTESIAN_POINT ( 'NONE',  ( 3.526396152231565067E-13, 1.799711739194212982E-32, 101.0000000000000000 ) ) ;
#153 = LOCAL_TIME ( 15, 33, 21.00000000000000000, #227 ) ;
#154 = CC_DESIGN_APPROVAL ( #56, ( #188 ) ) ;
#155 = DIRECTION ( 'NONE',  ( -4.275831445896959482E-31, -1.000000000000000000, -1.224646799147353207E-16 ) ) ;
#156 = PERSON_AND_ORGANIZATION ( #75, #160 ) ;
#157 = AXIS2_PLACEMENT_3D ( 'NONE', #101, #175, #36 ) ;
#158 = AXIS2_PLACEMENT_3D ( 'NONE', #171, #236, #8 ) ;
#159 = ORIENTED_EDGE ( 'NONE', *, *, #204, .F. ) ;
#160 = ORGANIZATION ( 'UNSPECIFIED', 'UNSPECIFIED', '' ) ;
#161 = CC_DESIGN_APPROVAL ( #104, ( #47 ) ) ;
#162 = APPROVAL_DATE_TIME ( #180, #56 ) ;
#163 = CARTESIAN_POINT ( 'NONE',  ( 0.000000000000000000, 0.000000000000000000, 0.000000000000000000 ) ) ;
#164 = COORDINATED_UNIVERSAL_TIME_OFFSET ( 1, 0, .AHEAD. ) ;
#165 = COORDINATED_UNIVERSAL_TIME_OFFSET ( 1, 0, .AHEAD. ) ;
#166 = FACE_BOUND ( 'NONE', #185, .T. ) ;
#167 = PERSON_AND_ORGANIZATION ( #75, #160 ) ;
#168 = ORIENTED_EDGE ( 'NONE', *, *, #11, .T. ) ;
#169 = DIRECTION ( 'NONE',  ( 0.000000000000000000, 1.000000000000000000, 0.000000000000000000 ) ) ;
#170 = ADVANCED_FACE ( 'NONE', ( #216, #193 ), #208, .T. ) ;
#171 = CARTESIAN_POINT ( 'NONE',  ( 3.505447264198505131E-13, -1.229545386343942402E-14, 100.3999999999999915 ) ) ;
#172 = EDGE_CURVE ( 'NONE', #40, #40, #70, .T. ) ;
#173 = DIRECTION ( 'NONE',  ( 0.000000000000000000, 1.000000000000000000, 0.000000000000000000 ) ) ;
#174 = CARTESIAN_POINT ( 'NONE',  ( 5.586370142149013368E-14, 2.924531576190619598E-32, 16.00000000000000000 ) ) ;
#175 = DIRECTION ( 'NONE',  ( -3.491481338843133355E-15, 1.224646799147353207E-16, -1.000000000000000000 ) ) ;
#176 = ADVANCED_FACE ( 'NONE', ( #48 ), #31, .F. ) ;
#177 = APPROVAL_DATE_TIME ( #76, #104 ) ;
#178 = CALENDAR_DATE ( 2023, 28, 9 ) ;
#179 = EDGE_CURVE ( 'NONE', #219, #219, #32, .T. ) ;
#180 = DATE_AND_TIME ( #94, #196 ) ;
#181 = APPLICATION_PROTOCOL_DEFINITION ( 'international standard', 'config_control_design', 1994, #114 ) ;
#182 = PERSON_AND_ORGANIZATION_ROLE ( 'creator' ) ;
#183 = EDGE_LOOP ( 'NONE', ( #115 ) ) ;
#184 = AXIS2_PLACEMENT_3D ( 'NONE', #163, #222, #207 ) ;
#185 = EDGE_LOOP ( 'NONE', ( #168 ) ) ;
#186 = EDGE_LOOP ( 'NONE', ( #159 ) ) ;
#187 = AXIS2_PLACEMENT_3D ( 'NONE', #228, #7, #169 ) ;
#188 = PRODUCT_DEFINITION ( 'UNKNOWN', '', #47, #80 ) ;
#189 = ORIENTED_EDGE ( 'NONE', *, *, #96, .T. ) ;
#190 = UNCERTAINTY_MEASURE_WITH_UNIT (LENGTH_MEASURE( 1.000000000000000082E-05 ), #223, 'distance_accuracy_value', 'NONE');
#191 = APPROVAL_ROLE ( '' ) ;
#192 = DIRECTION ( 'NONE',  ( -3.491481338843133355E-15, 1.224646799147353207E-16, -1.000000000000000000 ) ) ;
#193 = FACE_BOUND ( 'NONE', #125, .T. ) ;
#194 = CIRCLE ( 'NONE', #187, 2.999999999999990230 ) ;
#195 = SECURITY_CLASSIFICATION ( '', '', #73 ) ;
#196 = LOCAL_TIME ( 15, 33, 21.00000000000000000, #108 ) ;
#197 = DIRECTION ( 'NONE',  ( 4.275831445896958607E-31, 1.000000000000000000, 1.224646799147353207E-16 ) ) ;
#198 = CARTESIAN_POINT ( 'NONE',  ( 1.396592535537250778E-15, -4.898587196589403831E-17, 0.3999999999999992450 ) ) ;
#199 = DIRECTION ( 'NONE',  ( -3.491481338843133355E-15, 1.224646799147353207E-16, -1.000000000000000000 ) ) ;
#200 = AXIS2_PLACEMENT_3D ( 'NONE', #174, #50, #134 ) ;
#201 = FACE_BOUND ( 'NONE', #45, .T. ) ;
#202 =( NAMED_UNIT ( * ) SI_UNIT ( $, .STERADIAN. ) SOLID_ANGLE_UNIT ( ) );
#203 = EDGE_LOOP ( 'NONE', ( #41 ) ) ;
#204 = EDGE_CURVE ( 'NONE', #129, #129, #37, .T. ) ;
#205 = DATE_AND_TIME ( #178, #57 ) ;
#206 = PERSON_AND_ORGANIZATION_ROLE ( 'design_owner' ) ;
#207 = DIRECTION ( 'NONE',  ( 1.000000000000000000, 0.000000000000000000, 0.000000000000000000 ) ) ;
#208 = CONICAL_SURFACE ( 'NONE', #59, 2.400000000000003464, 0.7853981633974335130 ) ;
#209 = CALENDAR_DATE ( 2023, 28, 9 ) ;
#210 = CARTESIAN_POINT ( 'NONE',  ( -7.482705030319673620E-31, 2.624579619658249172E-32, -2.143131898507867065E-16 ) ) ;
#211 = CC_DESIGN_PERSON_AND_ORGANIZATION_ASSIGNMENT ( #53, #182, ( #188 ) ) ;
#212 = APPROVAL_DATE_TIME ( #4, #82 ) ;
#213 = ORIENTED_EDGE ( 'NONE', *, *, #204, .T. ) ;
#214 = CARTESIAN_POINT ( 'NONE',  ( 5.586370142149013368E-14, 2.924531576190619598E-32, 16.00000000000000000 ) ) ;
#215 = ORIENTED_EDGE ( 'NONE', *, *, #172, .T. ) ;
#216 = FACE_OUTER_BOUND ( 'NONE', #226, .T. ) ;
#217 = CARTESIAN_POINT ( 'NONE',  ( 5.586370142149013368E-14, -1.959434878635765131E-15, 16.00000000000000000 ) ) ;
#218 = AXIS2_PLACEMENT_3D ( 'NONE', #214, #62, #25 ) ;
#219 = VERTEX_POINT ( 'NONE', #220 ) ;
#220 = CARTESIAN_POINT ( 'NONE',  ( 1.710569414459005214E-46, 3.499999999999998224, 0.000000000000000000 ) ) ;
#221 = ADVANCED_FACE ( 'NONE', ( #235, #201 ), #149, .T. ) ;
#222 = DIRECTION ( 'NONE',  ( 0.000000000000000000, 0.000000000000000000, 1.000000000000000000 ) ) ;
#223 =( LENGTH_UNIT ( ) NAMED_UNIT ( * ) SI_UNIT ( .MILLI., .METRE. ) );
#224 = APPLICATION_PROTOCOL_DEFINITION ( 'international standard', 'config_control_design', 1994, #109 ) ;
#225 = EDGE_CURVE ( 'NONE', #142, #142, #52, .T. ) ;
#226 = EDGE_LOOP ( 'NONE', ( #24 ) ) ;
#227 = COORDINATED_UNIVERSAL_TIME_OFFSET ( 1, 0, .AHEAD. ) ;
#228 = CARTESIAN_POINT ( 'NONE',  ( 6.130638218678960361E-14, -2.150338421606250215E-15, 17.55884572681200240 ) ) ;
#229 = CARTESIAN_POINT ( 'NONE',  ( 5.586370142149013368E-14, -1.959434878635765131E-15, 16.00000000000000000 ) ) ;
#230 = CC_DESIGN_PERSON_AND_ORGANIZATION_ASSIGNMENT ( #139, #18, ( #195 ) ) ;
#231 = DATE_AND_TIME ( #141, #106 ) ;
#232 = FACE_OUTER_BOUND ( 'NONE', #26, .T. ) ;
#233 = DIRECTION ( 'NONE',  ( 0.000000000000000000, 1.000000000000000000, 0.000000000000000000 ) ) ;
#234 = CC_DESIGN_PERSON_AND_ORGANIZATION_ASSIGNMENT ( #156, #239, ( #47 ) ) ;
#235 = FACE_OUTER_BOUND ( 'NONE', #28, .T. ) ;
#236 = DIRECTION ( 'NONE',  ( -3.491481338843133355E-15, 1.224646799147353207E-16, -1.000000000000000000 ) ) ;
#237 = AXIS2_PLACEMENT_3D ( 'NONE', #152, #67, #51 ) ;
#238 = PRODUCT_DEFINITION_SHAPE ( 'NONE', 'NONE',  #188 ) ;
#239 = PERSON_AND_ORGANIZATION_ROLE ( 'design_supplier' ) ;
#240 = COORDINATED_UNIVERSAL_TIME_OFFSET ( 1, 0, .AHEAD. ) ;
#241 = CALENDAR_DATE ( 2023, 28, 9 ) ;
#242 = AXIS2_PLACEMENT_3D ( 'NONE', #60, #147, #64 ) ;
#243 =( NAMED_UNIT ( * ) PLANE_ANGLE_UNIT ( ) SI_UNIT ( $, .RADIAN. ) );
ENDSEC;
END-ISO-10303-21;
