ISO-10303-21;
HEADER;
FILE_DESCRIPTION (( 'STEP AP203' ),
    '1' );
FILE_NAME ('342202.step',
    '2023-09-28T13:33:21',
    ( '' ),
    ( '' ),
    'SwSTEP 2.0',
    'SolidWorks 2022',
    '' );
FILE_SCHEMA (( 'CONFIG_CONTROL_DESIGN' ));
ENDSEC;

DATA;
#1 = CARTESIAN_POINT ( 'NONE',  ( 1.396592535537250778E-15, -4.898587196589403831E-17, 0.3999999999999992450 ) ) ;
#2 = ADVANCED_BREP_SHAPE_REPRESENTATION ( '342202', ( #60, #51, #15 ), #78 ) ;
#3 = CC_DESIGN_PERSON_AND_ORGANIZATION_ASSIGNMENT ( #127, #63, ( #19 ) ) ;
#4 = DIRECTION ( 'NONE',  ( -3.491481338843133355E-15, 1.224646799147353207E-16, -1.000000000000000000 ) ) ;
#5 = CARTESIAN_POINT ( 'NONE',  ( 3.526396152231565067E-13, -1.236893267138826732E-14, 101.0000000000000000 ) ) ;
#6 = CARTESIAN_POINT ( 'NONE',  ( 3.526396152231565067E-13, 1.799711739194212982E-32, 101.0000000000000000 ) ) ;
#7 = AXIS2_PLACEMENT_3D ( 'NONE', #119, #67, #88 ) ;
#8 = PERSON_AND_ORGANIZATION ( #50, #204 ) ;
#9 = APPLICATION_PROTOCOL_DEFINITION ( 'international standard', 'config_control_design', 1994, #35 ) ;
#10 = CARTESIAN_POINT ( 'NONE',  ( 0.000000000000000000, 0.000000000000000000, 0.000000000000000000 ) ) ;
#11 = CC_DESIGN_DATE_AND_TIME_ASSIGNMENT ( #57, #164, ( #19 ) ) ;
#12 = CIRCLE ( 'NONE', #149, 3.850000000000000089 ) ;
#13 = CC_DESIGN_SECURITY_CLASSIFICATION ( #56, ( #32 ) ) ;
#14 = DIRECTION ( 'NONE',  ( 1.000000000000000000, 0.000000000000000000, 0.000000000000000000 ) ) ;
#15 = AXIS2_PLACEMENT_3D ( 'NONE', #176, #49, #14 ) ;
#16 = LOCAL_TIME ( 15, 33, 21.00000000000000000, #224 ) ;
#17 = ORIENTED_EDGE ( 'NONE', *, *, #94, .T. ) ;
#18 = ORIENTED_EDGE ( 'NONE', *, *, #48, .F. ) ;
#19 = PRODUCT_DEFINITION ( 'UNKNOWN', '', #32, #225 ) ;
#20 = CALENDAR_DATE ( 2023, 28, 9 ) ;
#21 = CC_DESIGN_APPROVAL ( #195, ( #32 ) ) ;
#22 = EDGE_LOOP ( 'NONE', ( #201 ) ) ;
#23 = CARTESIAN_POINT ( 'NONE',  ( -1.475161848834450360E-30, 5.174171250183407105E-32, -4.225031457058367344E-16 ) ) ;
#24 = PLANE ( 'NONE',  #103 ) ;
#25 = DIRECTION ( 'NONE',  ( 0.000000000000000000, 1.000000000000000000, 0.000000000000000000 ) ) ;
#26 = CLOSED_SHELL ( 'NONE', ( #206, #133, #189, #150 ) ) ;
#27 = FACE_OUTER_BOUND ( 'NONE', #22, .T. ) ;
#28 = APPROVAL_PERSON_ORGANIZATION ( #233, #45, #138 ) ;
#29 = CC_DESIGN_APPROVAL ( #130, ( #56 ) ) ;
#30 = DIRECTION ( 'NONE',  ( -3.491481338843133355E-15, 1.224646799147353207E-16, -1.000000000000000000 ) ) ;
#31 = CIRCLE ( 'NONE', #47, 3.449999999999998845 ) ;
#32 = PRODUCT_DEFINITION_FORMATION_WITH_SPECIFIED_SOURCE ( 'ANY', '', #143, .NOT_KNOWN. ) ;
#33 = CARTESIAN_POINT ( 'NONE',  ( -7.375809244172251801E-31, 2.587085625091703552E-32, -2.112515728529183672E-16 ) ) ;
#34 = PERSON_AND_ORGANIZATION_ROLE ( 'design_supplier' ) ;
#35 = APPLICATION_CONTEXT ( 'configuration controlled 3d designs of mechanical parts and assemblies' ) ;
#36 = CARTESIAN_POINT ( 'NONE',  ( 3.505447264198505131E-13, -1.229545386343942402E-14, 100.3999999999999915 ) ) ;
#37 = CONICAL_SURFACE ( 'NONE', #70, 3.850000000000000533, 0.5235987755983007030 ) ;
#38 = APPROVAL_ROLE ( '' ) ;
#39 = EDGE_CURVE ( 'NONE', #123, #123, #215, .T. ) ;
#40 = CALENDAR_DATE ( 2023, 28, 9 ) ;
#41 = EDGE_LOOP ( 'NONE', ( #203 ) ) ;
#42 = COORDINATED_UNIVERSAL_TIME_OFFSET ( 1, 0, .AHEAD. ) ;
#43 = UNCERTAINTY_MEASURE_WITH_UNIT (LENGTH_MEASURE( 1.000000000000000082E-05 ), #193, 'distance_accuracy_value', 'NONE');
#44 = EDGE_LOOP ( 'NONE', ( #165 ) ) ;
#45 = APPROVAL ( #72, 'UNSPECIFIED' ) ;
#46 = CYLINDRICAL_SURFACE ( 'NONE', #7, 2.999999999999996447 ) ;
#47 = AXIS2_PLACEMENT_3D ( 'NONE', #71, #135, #186 ) ;
#48 = EDGE_CURVE ( 'NONE', #92, #92, #96, .T. ) ;
#49 = DIRECTION ( 'NONE',  ( 0.000000000000000000, 0.000000000000000000, 1.000000000000000000 ) ) ;
#50 = PERSON ( 'UNSPECIFIED', 'UNSPECIFIED', 'UNSPECIFIED', ('UNSPECIFIED'), ('UNSPECIFIED'), ('UNSPECIFIED') ) ;
#51 = MANIFOLD_SOLID_BREP ( 'Corps-Déplacer/Copier1[2]', #26 ) ;
#52 = CC_DESIGN_PERSON_AND_ORGANIZATION_ASSIGNMENT ( #177, #168, ( #32 ) ) ;
#53 = FACE_OUTER_BOUND ( 'NONE', #59, .T. ) ;
#54 = DIRECTION ( 'NONE',  ( 3.491481338843133355E-15, -1.224646799147353207E-16, 1.000000000000000000 ) ) ;
#55 = VERTEX_POINT ( 'NONE', #235 ) ;
#56 = SECURITY_CLASSIFICATION ( '', '', #110 ) ;
#57 = DATE_AND_TIME ( #40, #156 ) ;
#58 = COORDINATED_UNIVERSAL_TIME_OFFSET ( 1, 0, .AHEAD. ) ;
#59 = EDGE_LOOP ( 'NONE', ( #167 ) ) ;
#60 = MANIFOLD_SOLID_BREP ( 'Corps-Déplacer/Copier1[1]', #216 ) ;
#61 = PERSON_AND_ORGANIZATION ( #50, #204 ) ;
#62 = AXIS2_PLACEMENT_3D ( 'NONE', #118, #169, #25 ) ;
#63 = PERSON_AND_ORGANIZATION_ROLE ( 'creator' ) ;
#64 = EDGE_LOOP ( 'NONE', ( #17 ) ) ;
#65 = EDGE_LOOP ( 'NONE', ( #181 ) ) ;
#66 = AXIS2_PLACEMENT_3D ( 'NONE', #6, #170, #69 ) ;
#67 = DIRECTION ( 'NONE',  ( -3.491481338843133355E-15, 1.224646799147353207E-16, -1.000000000000000000 ) ) ;
#68 = ADVANCED_FACE ( 'NONE', ( #146, #221 ), #200, .T. ) ;
#69 = DIRECTION ( 'NONE',  ( 4.275831445896958607E-31, 1.000000000000000000, 1.224646799147353207E-16 ) ) ;
#70 = AXIS2_PLACEMENT_3D ( 'NONE', #120, #30, #104 ) ;
#71 = CARTESIAN_POINT ( 'NONE',  ( -1.475161848834450360E-30, 5.174171250183407105E-32, -4.225031457058367344E-16 ) ) ;
#72 = APPROVAL_STATUS ( 'not_yet_approved' ) ;
#73 = EDGE_CURVE ( 'NONE', #213, #213, #184, .T. ) ;
#74 = FACE_OUTER_BOUND ( 'NONE', #44, .T. ) ;
#75 = FACE_OUTER_BOUND ( 'NONE', #179, .T. ) ;
#76 = PERSON_AND_ORGANIZATION_ROLE ( 'design_owner' ) ;
#77 = EDGE_CURVE ( 'NONE', #210, #210, #93, .T. ) ;
#78 =( GEOMETRIC_REPRESENTATION_CONTEXT ( 3 ) GLOBAL_UNCERTAINTY_ASSIGNED_CONTEXT ( ( #43 ) ) GLOBAL_UNIT_ASSIGNED_CONTEXT ( ( #193, #157, #172 ) ) REPRESENTATION_CONTEXT ( 'NONE', 'WORKASPACE' ) );
#79 = PRODUCT_DEFINITION_SHAPE ( 'NONE', 'NONE',  #19 ) ;
#80 = ORIENTED_EDGE ( 'NONE', *, *, #73, .T. ) ;
#81 = DIRECTION ( 'NONE',  ( 0.000000000000000000, 1.000000000000000000, 0.000000000000000000 ) ) ;
#82 = ADVANCED_FACE ( 'NONE', ( #171 ), #101, .F. ) ;
#83 = COORDINATED_UNIVERSAL_TIME_OFFSET ( 1, 0, .AHEAD. ) ;
#84 = APPROVAL_ROLE ( '' ) ;
#85 = DIRECTION ( 'NONE',  ( 3.491481338843133355E-15, -1.224646799147353207E-16, 1.000000000000000000 ) ) ;
#86 = CONICAL_SURFACE ( 'NONE', #194, 3.449999999999998845, 0.7853981633974504994 ) ;
#87 = CARTESIAN_POINT ( 'NONE',  ( 6.100401103316185317E-14, -2.139732669219000956E-15, 17.47224318643355900 ) ) ;
#88 = DIRECTION ( 'NONE',  ( 4.275831445896958607E-31, 1.000000000000000000, 1.224646799147353207E-16 ) ) ;
#89 = EDGE_CURVE ( 'NONE', #105, #105, #12, .T. ) ;
#90 = APPLICATION_PROTOCOL_DEFINITION ( 'international standard', 'config_control_design', 1994, #234 ) ;
#91 = DIRECTION ( 'NONE',  ( -3.491481338843133355E-15, 1.224646799147353207E-16, -1.000000000000000000 ) ) ;
#92 = VERTEX_POINT ( 'NONE', #192 ) ;
#93 = CIRCLE ( 'NONE', #115, 3.850000000000000533 ) ;
#94 = EDGE_CURVE ( 'NONE', #124, #124, #190, .T. ) ;
#95 = ORIENTED_EDGE ( 'NONE', *, *, #73, .F. ) ;
#96 = CIRCLE ( 'NONE', #161, 3.000000000000002665 ) ;
#97 = EDGE_CURVE ( 'NONE', #55, #55, #31, .T. ) ;
#98 = ORIENTED_EDGE ( 'NONE', *, *, #39, .T. ) ;
#99 = AXIS2_PLACEMENT_3D ( 'NONE', #33, #139, #175 ) ;
#100 = APPROVAL_STATUS ( 'not_yet_approved' ) ;
#101 = PLANE ( 'NONE',  #66 ) ;
#102 = DIRECTION ( 'NONE',  ( 3.491481338843133355E-15, -1.224646799147353207E-16, 1.000000000000000000 ) ) ;
#103 = AXIS2_PLACEMENT_3D ( 'NONE', #232, #102, #137 ) ;
#104 = DIRECTION ( 'NONE',  ( 0.000000000000000000, 1.000000000000000000, 0.000000000000000000 ) ) ;
#105 = VERTEX_POINT ( 'NONE', #142 ) ;
#106 = DIRECTION ( 'NONE',  ( 4.275831445896959482E-31, 1.000000000000000000, 1.224646799147353207E-16 ) ) ;
#107 = CARTESIAN_POINT ( 'NONE',  ( 5.586370142149013368E-14, 2.887037581624072884E-32, 16.00000000000000000 ) ) ;
#108 = DIRECTION ( 'NONE',  ( -3.491481338843133355E-15, 1.224646799147353207E-16, -1.000000000000000000 ) ) ;
#109 = CC_DESIGN_APPROVAL ( #45, ( #19 ) ) ;
#110 = SECURITY_CLASSIFICATION_LEVEL ( 'unclassified' ) ;
#111 = PERSON_AND_ORGANIZATION ( #50, #204 ) ;
#112 = DATE_AND_TIME ( #20, #231 ) ;
#113 = ORIENTED_EDGE ( 'NONE', *, *, #77, .F. ) ;
#114 = ADVANCED_FACE ( 'NONE', ( #27, #208 ), #46, .T. ) ;
#115 = AXIS2_PLACEMENT_3D ( 'NONE', #183, #207, #155 ) ;
#116 = AXIS2_PLACEMENT_3D ( 'NONE', #145, #126, #198 ) ;
#117 = FACE_BOUND ( 'NONE', #163, .T. ) ;
#118 = CARTESIAN_POINT ( 'NONE',  ( 3.526396152231565067E-13, -1.236893267138826732E-14, 101.0000000000000000 ) ) ;
#119 = CARTESIAN_POINT ( 'NONE',  ( 0.000000000000000000, 0.000000000000000000, 0.000000000000000000 ) ) ;
#120 = CARTESIAN_POINT ( 'NONE',  ( 5.586370142149013368E-14, -1.959434878635765131E-15, 16.00000000000000000 ) ) ;
#121 = AXIS2_PLACEMENT_3D ( 'NONE', #107, #54, #174 ) ;
#122 = CARTESIAN_POINT ( 'NONE',  ( 6.100401103316185317E-14, 2.999999999999988010, 17.47224318643355900 ) ) ;
#123 = VERTEX_POINT ( 'NONE', #141 ) ;
#124 = VERTEX_POINT ( 'NONE', #122 ) ;
#125 = LOCAL_TIME ( 15, 33, 21.00000000000000000, #144 ) ;
#126 = DIRECTION ( 'NONE',  ( -3.491481338843133355E-15, 1.224646799147353207E-16, -1.000000000000000000 ) ) ;
#127 = PERSON_AND_ORGANIZATION ( #50, #204 ) ;
#128 = AXIS2_PLACEMENT_3D ( 'NONE', #5, #134, #228 ) ;
#129 = DATE_AND_TIME ( #222, #125 ) ;
#130 = APPROVAL ( #100, 'UNSPECIFIED' ) ;
#131 = ORIENTED_EDGE ( 'NONE', *, *, #97, .F. ) ;
#132 = EDGE_LOOP ( 'NONE', ( #98 ) ) ;
#133 = ADVANCED_FACE ( 'NONE', ( #187 ), #24, .T. ) ;
#134 = DIRECTION ( 'NONE',  ( -3.491481338843133355E-15, 1.224646799147353207E-16, -1.000000000000000000 ) ) ;
#135 = DIRECTION ( 'NONE',  ( -3.491481338843133355E-15, 1.224646799147353207E-16, -1.000000000000000000 ) ) ;
#136 = PRODUCT_RELATED_PRODUCT_CATEGORY ( 'detail', '', ( #143 ) ) ;
#137 = DIRECTION ( 'NONE',  ( -4.275831445896958607E-31, -1.000000000000000000, -1.224646799147353207E-16 ) ) ;
#138 = APPROVAL_ROLE ( '' ) ;
#139 = DIRECTION ( 'NONE',  ( -3.491481338843133355E-15, 1.224646799147353207E-16, -1.000000000000000000 ) ) ;
#140 = CC_DESIGN_PERSON_AND_ORGANIZATION_ASSIGNMENT ( #111, #178, ( #56 ) ) ;
#141 = CARTESIAN_POINT ( 'NONE',  ( 5.586370142149013368E-14, 3.849999999999998312, 16.00000000000000000 ) ) ;
#142 = CARTESIAN_POINT ( 'NONE',  ( 1.396592535537252553E-15, 3.850000000000000089, 0.3999999999999997446 ) ) ;
#143 = PRODUCT ( '342202', '342202', '', ( #160 ) ) ;
#144 = COORDINATED_UNIVERSAL_TIME_OFFSET ( 1, 0, .AHEAD. ) ;
#145 = CARTESIAN_POINT ( 'NONE',  ( 5.586370142149013368E-14, -1.959434878635765131E-15, 16.00000000000000000 ) ) ;
#146 = FACE_OUTER_BOUND ( 'NONE', #148, .T. ) ;
#147 = DATE_TIME_ROLE ( 'classification_date' ) ;
#148 = EDGE_LOOP ( 'NONE', ( #18 ) ) ;
#149 = AXIS2_PLACEMENT_3D ( 'NONE', #1, #4, #205 ) ;
#150 = ADVANCED_FACE ( 'NONE', ( #209, #117 ), #86, .T. ) ;
#151 = DATE_AND_TIME ( #199, #16 ) ;
#152 = ORIENTED_EDGE ( 'NONE', *, *, #89, .T. ) ;
#153 = DIRECTION ( 'NONE',  ( -4.275831445896958607E-31, -1.000000000000000000, -1.224646799147353207E-16 ) ) ;
#154 = DIRECTION ( 'NONE',  ( 0.000000000000000000, 1.000000000000000000, 0.000000000000000000 ) ) ;
#155 = DIRECTION ( 'NONE',  ( 0.000000000000000000, 1.000000000000000000, 0.000000000000000000 ) ) ;
#156 = LOCAL_TIME ( 15, 33, 21.00000000000000000, #42 ) ;
#157 =( NAMED_UNIT ( * ) PLANE_ANGLE_UNIT ( ) SI_UNIT ( $, .RADIAN. ) );
#158 = CARTESIAN_POINT ( 'NONE',  ( 3.526396152231565067E-13, 2.399999999999990585, 101.0000000000000000 ) ) ;
#159 = CARTESIAN_POINT ( 'NONE',  ( 5.586370142149013368E-14, 3.849999999999998312, 16.00000000000000000 ) ) ;
#160 = MECHANICAL_CONTEXT ( 'NONE', #35, 'mechanical' ) ;
#161 = AXIS2_PLACEMENT_3D ( 'NONE', #36, #108, #81 ) ;
#162 = APPROVAL_PERSON_ORGANIZATION ( #61, #195, #38 ) ;
#163 = EDGE_LOOP ( 'NONE', ( #131 ) ) ;
#164 = DATE_TIME_ROLE ( 'creation_date' ) ;
#165 = ORIENTED_EDGE ( 'NONE', *, *, #97, .T. ) ;
#166 = APPROVAL_DATE_TIME ( #240, #45 ) ;
#167 = ORIENTED_EDGE ( 'NONE', *, *, #39, .F. ) ;
#168 = PERSON_AND_ORGANIZATION_ROLE ( 'creator' ) ;
#169 = DIRECTION ( 'NONE',  ( -3.491481338843133355E-15, 1.224646799147353207E-16, -1.000000000000000000 ) ) ;
#170 = DIRECTION ( 'NONE',  ( -3.491481338843133355E-15, 1.224646799147353207E-16, -1.000000000000000000 ) ) ;
#171 = FACE_OUTER_BOUND ( 'NONE', #239, .T. ) ;
#172 =( NAMED_UNIT ( * ) SI_UNIT ( $, .STERADIAN. ) SOLID_ANGLE_UNIT ( ) );
#173 = ADVANCED_FACE ( 'NONE', ( #182, #53 ), #37, .T. ) ;
#174 = DIRECTION ( 'NONE',  ( -4.275831445896958607E-31, -1.000000000000000000, -1.224646799147353207E-16 ) ) ;
#175 = DIRECTION ( 'NONE',  ( 4.275831445896958607E-31, 1.000000000000000000, 1.224646799147353207E-16 ) ) ;
#176 = CARTESIAN_POINT ( 'NONE',  ( 0.000000000000000000, 0.000000000000000000, 0.000000000000000000 ) ) ;
#177 = PERSON_AND_ORGANIZATION ( #50, #204 ) ;
#178 = PERSON_AND_ORGANIZATION_ROLE ( 'classification_officer' ) ;
#179 = EDGE_LOOP ( 'NONE', ( #202 ) ) ;
#180 = EDGE_LOOP ( 'NONE', ( #80 ) ) ;
#181 = ORIENTED_EDGE ( 'NONE', *, *, #89, .F. ) ;
#182 = FACE_BOUND ( 'NONE', #64, .T. ) ;
#183 = CARTESIAN_POINT ( 'NONE',  ( 5.586370142149013368E-14, -1.959434878635765131E-15, 16.00000000000000000 ) ) ;
#184 = CIRCLE ( 'NONE', #62, 2.400000000000003464 ) ;
#185 = CC_DESIGN_DATE_AND_TIME_ASSIGNMENT ( #151, #147, ( #56 ) ) ;
#186 = DIRECTION ( 'NONE',  ( 4.275831445896958607E-31, 1.000000000000000000, 1.224646799147353207E-16 ) ) ;
#187 = FACE_OUTER_BOUND ( 'NONE', #226, .T. ) ;
#188 = FACE_OUTER_BOUND ( 'NONE', #65, .T. ) ;
#189 = ADVANCED_FACE ( 'NONE', ( #74 ), #214, .T. ) ;
#190 = CIRCLE ( 'NONE', #242, 2.999999999999990230 ) ;
#191 = CYLINDRICAL_SURFACE ( 'NONE', #230, 3.850000000000000089 ) ;
#192 = CARTESIAN_POINT ( 'NONE',  ( 3.505447264198505131E-13, 2.999999999999990674, 100.3999999999999915 ) ) ;
#193 =( LENGTH_UNIT ( ) NAMED_UNIT ( * ) SI_UNIT ( .MILLI., .METRE. ) );
#194 = AXIS2_PLACEMENT_3D ( 'NONE', #23, #85, #153 ) ;
#195 = APPROVAL ( #197, 'UNSPECIFIED' ) ;
#196 = APPROVAL_DATE_TIME ( #129, #195 ) ;
#197 = APPROVAL_STATUS ( 'not_yet_approved' ) ;
#198 = DIRECTION ( 'NONE',  ( 0.000000000000000000, 1.000000000000000000, 0.000000000000000000 ) ) ;
#199 = CALENDAR_DATE ( 2023, 28, 9 ) ;
#200 = CONICAL_SURFACE ( 'NONE', #128, 2.400000000000003464, 0.7853981633974335130 ) ;
#201 = ORIENTED_EDGE ( 'NONE', *, *, #94, .F. ) ;
#202 = ORIENTED_EDGE ( 'NONE', *, *, #77, .T. ) ;
#203 = ORIENTED_EDGE ( 'NONE', *, *, #48, .T. ) ;
#204 = ORGANIZATION ( 'UNSPECIFIED', 'UNSPECIFIED', '' ) ;
#205 = DIRECTION ( 'NONE',  ( 4.502173895970161325E-31, 1.000000000000000000, 1.267249292515524548E-16 ) ) ;
#206 = ADVANCED_FACE ( 'NONE', ( #75, #188 ), #191, .T. ) ;
#207 = DIRECTION ( 'NONE',  ( -3.491481338843133355E-15, 1.224646799147353207E-16, -1.000000000000000000 ) ) ;
#208 = FACE_OUTER_BOUND ( 'NONE', #41, .T. ) ;
#209 = FACE_OUTER_BOUND ( 'NONE', #223, .T. ) ;
#210 = VERTEX_POINT ( 'NONE', #159 ) ;
#211 = LOCAL_TIME ( 15, 33, 21.00000000000000000, #58 ) ;
#212 = FACE_OUTER_BOUND ( 'NONE', #132, .T. ) ;
#213 = VERTEX_POINT ( 'NONE', #158 ) ;
#214 = PLANE ( 'NONE',  #99 ) ;
#215 = CIRCLE ( 'NONE', #116, 3.850000000000000533 ) ;
#216 = CLOSED_SHELL ( 'NONE', ( #236, #173, #114, #68, #82 ) ) ;
#217 = APPROVAL_DATE_TIME ( #112, #130 ) ;
#218 = APPROVAL_PERSON_ORGANIZATION ( #241, #130, #84 ) ;
#219 = SHAPE_DEFINITION_REPRESENTATION ( #79, #2 ) ;
#220 = CALENDAR_DATE ( 2023, 28, 9 ) ;
#221 = FACE_BOUND ( 'NONE', #180, .T. ) ;
#222 = CALENDAR_DATE ( 2023, 28, 9 ) ;
#223 = EDGE_LOOP ( 'NONE', ( #152 ) ) ;
#224 = COORDINATED_UNIVERSAL_TIME_OFFSET ( 1, 0, .AHEAD. ) ;
#225 = DESIGN_CONTEXT ( 'detailed design', #234, 'design' ) ;
#226 = EDGE_LOOP ( 'NONE', ( #113 ) ) ;
#227 = DIRECTION ( 'NONE',  ( -3.491481338843133355E-15, 1.224646799147353207E-16, -1.000000000000000000 ) ) ;
#228 = DIRECTION ( 'NONE',  ( 0.000000000000000000, 1.000000000000000000, 0.000000000000000000 ) ) ;
#229 = CC_DESIGN_PERSON_AND_ORGANIZATION_ASSIGNMENT ( #8, #76, ( #143 ) ) ;
#230 = AXIS2_PLACEMENT_3D ( 'NONE', #10, #91, #106 ) ;
#231 = LOCAL_TIME ( 15, 33, 21.00000000000000000, #83 ) ;
#232 = CARTESIAN_POINT ( 'NONE',  ( 5.586370142149013368E-14, 2.887037581624072884E-32, 16.00000000000000000 ) ) ;
#233 = PERSON_AND_ORGANIZATION ( #50, #204 ) ;
#234 = APPLICATION_CONTEXT ( 'configuration controlled 3d designs of mechanical parts and assemblies' ) ;
#235 = CARTESIAN_POINT ( 'NONE',  ( -1.710569414459005214E-46, 3.449999999999998845, 0.000000000000000000 ) ) ;
#236 = ADVANCED_FACE ( 'NONE', ( #212 ), #237, .F. ) ;
#237 = PLANE ( 'NONE',  #121 ) ;
#238 = CC_DESIGN_PERSON_AND_ORGANIZATION_ASSIGNMENT ( #243, #34, ( #32 ) ) ;
#239 = EDGE_LOOP ( 'NONE', ( #95 ) ) ;
#240 = DATE_AND_TIME ( #220, #211 ) ;
#241 = PERSON_AND_ORGANIZATION ( #50, #204 ) ;
#242 = AXIS2_PLACEMENT_3D ( 'NONE', #87, #227, #154 ) ;
#243 = PERSON_AND_ORGANIZATION ( #50, #204 ) ;
ENDSEC;
END-ISO-10303-21;
