ISO-10303-21;
HEADER;
FILE_DESCRIPTION (( 'STEP AP203' ),
    '1' );
FILE_NAME ('3422.step',
    '2021-12-06T12:58:54',
    ( '' ),
    ( '' ),
    'SwSTEP 2.0',
    'SolidWorks 2019',
    '' );
FILE_SCHEMA (( 'CONFIG_CONTROL_DESIGN' ));
ENDSEC;

DATA;
#1 = PERSON_AND_ORGANIZATION ( #85, #143 ) ;
#2 = CLOSED_SHELL ( 'NONE', ( #134, #72, #152, #3 ) ) ;
#3 = ADVANCED_FACE ( 'NONE', ( #160, #7 ), #16, .F. ) ;
#4 = CARTESIAN_POINT ( 'NONE',  ( 4.888073874380381175E-15, -3.673940397442056417E-16, 1.399999999999998579 ) ) ;
#5 = ORIENTED_EDGE ( 'NONE', *, *, #22, .F. ) ;
#6 = DIRECTION ( 'NONE',  ( 9.162495955493484480E-31, 1.000000000000000000, 2.624243141030043538E-16 ) ) ;
#7 = FACE_OUTER_BOUND ( 'NONE', #86, .T. ) ;
#8 = DIRECTION ( 'NONE',  ( -3.491481338843133355E-15, 2.624243141030043045E-16, -1.000000000000000000 ) ) ;
#9 = DIRECTION ( 'NONE',  ( 0.0000000000000000000, 0.0000000000000000000, 1.000000000000000000 ) ) ;
#10 = DESIGN_CONTEXT ( 'detailed design', #125, 'design' ) ;
#11 = VERTEX_POINT ( 'NONE', #150 ) ;
#12 = DATE_AND_TIME ( #139, #157 ) ;
#13 = COORDINATED_UNIVERSAL_TIME_OFFSET ( 1, 0, .AHEAD. ) ;
#14 = COORDINATED_UNIVERSAL_TIME_OFFSET ( 1, 0, .AHEAD. ) ;
#15 = DIRECTION ( 'NONE',  ( -3.491481338843133355E-15, 2.624243141030043045E-16, -1.000000000000000000 ) ) ;
#16 = CYLINDRICAL_SURFACE ( 'NONE', #74, 5.000000000000000000 ) ;
#17 = CC_DESIGN_APPROVAL ( #48, ( #93 ) ) ;
#18 = EDGE_LOOP ( 'NONE', ( #5 ) ) ;
#19 = EDGE_LOOP ( 'NONE', ( #109 ) ) ;
#20 = EDGE_LOOP ( 'NONE', ( #30 ) ) ;
#21 = VERTEX_POINT ( 'NONE', #113 ) ;
#22 = EDGE_CURVE ( 'NONE', #11, #11, #154, .T. ) ;
#23 =( NAMED_UNIT ( * ) PLANE_ANGLE_UNIT ( ) SI_UNIT ( $, .RADIAN. ) );
#24 = CALENDAR_DATE ( 2021, 6, 12 ) ;
#25 = COORDINATED_UNIVERSAL_TIME_OFFSET ( 1, 0, .AHEAD. ) ;
#26 = APPROVAL_PERSON_ORGANIZATION ( #56, #117, #76 ) ;
#27 = DATE_AND_TIME ( #53, #107 ) ;
#28 = APPROVAL_ROLE ( '' ) ;
#29 = CIRCLE ( 'NONE', #98, 5.000000000000000000 ) ;
#30 = ORIENTED_EDGE ( 'NONE', *, *, #49, .F. ) ;
#31 = ORIENTED_EDGE ( 'NONE', *, *, #123, .T. ) ;
#32 =( GEOMETRIC_REPRESENTATION_CONTEXT ( 3 ) GLOBAL_UNCERTAINTY_ASSIGNED_CONTEXT ( ( #39 ) ) GLOBAL_UNIT_ASSIGNED_CONTEXT ( ( #37, #23, #54 ) ) REPRESENTATION_CONTEXT ( 'NONE', 'WORKASPACE' ) );
#33 = PRODUCT_RELATED_PRODUCT_CATEGORY ( 'detail', '', ( #75 ) ) ;
#34 = ORIENTED_EDGE ( 'NONE', *, *, #142, .T. ) ;
#35 = CARTESIAN_POINT ( 'NONE',  ( 0.0000000000000000000, 0.0000000000000000000, 0.0000000000000000000 ) ) ;
#36 = DIRECTION ( 'NONE',  ( -3.491481338843133355E-15, 2.624243141030043045E-16, -1.000000000000000000 ) ) ;
#37 =( LENGTH_UNIT ( ) NAMED_UNIT ( * ) SI_UNIT ( .MILLI., .METRE. ) );
#38 = APPROVAL_STATUS ( 'not_yet_approved' ) ;
#39 = UNCERTAINTY_MEASURE_WITH_UNIT (LENGTH_MEASURE( 1.000000000000000082E-05 ), #37, 'distance_accuracy_value', 'NONE');
#40 = DIRECTION ( 'NONE',  ( -9.162495955493484480E-31, -1.000000000000000000, -2.624243141030043045E-16 ) ) ;
#41 = CALENDAR_DATE ( 2021, 6, 12 ) ;
#42 = APPROVAL_DATE_TIME ( #155, #161 ) ;
#43 = AXIS2_PLACEMENT_3D ( 'NONE', #99, #15, #121 ) ;
#44 = PERSON_AND_ORGANIZATION ( #85, #143 ) ;
#45 = SECURITY_CLASSIFICATION_LEVEL ( 'unclassified' ) ;
#46 = CC_DESIGN_SECURITY_CLASSIFICATION ( #59, ( #93 ) ) ;
#47 = DIRECTION ( 'NONE',  ( 9.162495955493484480E-31, 1.000000000000000000, 2.624243141030043538E-16 ) ) ;
#48 = APPROVAL ( #106, 'UNSPECIFIED' ) ;
#49 = EDGE_CURVE ( 'NONE', #52, #52, #81, .T. ) ;
#50 = LOCAL_TIME ( 13, 58, 54.00000000000000000, #156 ) ;
#51 = CARTESIAN_POINT ( 'NONE',  ( 4.888073874380367765E-15, -3.673940397442046063E-16, 1.399999999999994582 ) ) ;
#52 = VERTEX_POINT ( 'NONE', #138 ) ;
#53 = CALENDAR_DATE ( 2021, 6, 12 ) ;
#54 =( NAMED_UNIT ( * ) SI_UNIT ( $, .STERADIAN. ) SOLID_ANGLE_UNIT ( ) );
#55 = PERSON_AND_ORGANIZATION ( #85, #143 ) ;
#56 = PERSON_AND_ORGANIZATION ( #85, #143 ) ;
#57 = SHAPE_DEFINITION_REPRESENTATION ( #118, #105 ) ;
#58 = CC_DESIGN_DATE_AND_TIME_ASSIGNMENT ( #67, #169, ( #59 ) ) ;
#59 = SECURITY_CLASSIFICATION ( '', '', #45 ) ;
#60 = DIRECTION ( 'NONE',  ( -3.491481338843133355E-15, 2.624243141030043045E-16, -1.000000000000000000 ) ) ;
#61 = FACE_OUTER_BOUND ( 'NONE', #19, .T. ) ;
#62 = CARTESIAN_POINT ( 'NONE',  ( 0.0000000000000000000, 0.0000000000000000000, 0.0000000000000000000 ) ) ;
#63 = ORIENTED_EDGE ( 'NONE', *, *, #123, .F. ) ;
#64 = DIRECTION ( 'NONE',  ( 9.162495955493484480E-31, 1.000000000000000000, 2.624243141030043538E-16 ) ) ;
#65 = PLANE ( 'NONE',  #136 ) ;
#66 = APPROVAL_DATE_TIME ( #12, #48 ) ;
#67 = DATE_AND_TIME ( #77, #79 ) ;
#68 = APPROVAL_DATE_TIME ( #130, #117 ) ;
#69 = CC_DESIGN_PERSON_AND_ORGANIZATION_ASSIGNMENT ( #44, #78, ( #93 ) ) ;
#70 = CIRCLE ( 'NONE', #140, 20.00000000000000000 ) ;
#71 = CC_DESIGN_PERSON_AND_ORGANIZATION_ASSIGNMENT ( #92, #168, ( #59 ) ) ;
#72 = ADVANCED_FACE ( 'NONE', ( #61, #145 ), #132, .T. ) ;
#73 = EDGE_LOOP ( 'NONE', ( #87 ) ) ;
#74 = AXIS2_PLACEMENT_3D ( 'NONE', #62, #162, #47 ) ;
#75 = PRODUCT ( '3422', '3422', '', ( #90 ) ) ;
#76 = APPROVAL_ROLE ( '' ) ;
#77 = CALENDAR_DATE ( 2021, 6, 12 ) ;
#78 = PERSON_AND_ORGANIZATION_ROLE ( 'design_supplier' ) ;
#79 = LOCAL_TIME ( 13, 58, 54.00000000000000000, #25 ) ;
#80 = MANIFOLD_SOLID_BREP ( 'Corps-Déplacer/Copier1', #2 ) ;
#81 = CIRCLE ( 'NONE', #119, 20.00000000000000000 ) ;
#82 = EDGE_LOOP ( 'NONE', ( #31 ) ) ;
#83 = PRODUCT_DEFINITION ( 'UNKNOWN', '', #93, #10 ) ;
#84 = FACE_OUTER_BOUND ( 'NONE', #146, .T. ) ;
#85 = PERSON ( 'UNSPECIFIED', 'UNSPECIFIED', 'UNSPECIFIED', ('UNSPECIFIED'), ('UNSPECIFIED'), ('UNSPECIFIED') ) ;
#86 = EDGE_LOOP ( 'NONE', ( #63 ) ) ;
#87 = ORIENTED_EDGE ( 'NONE', *, *, #142, .F. ) ;
#88 = FACE_BOUND ( 'NONE', #18, .T. ) ;
#89 = APPLICATION_PROTOCOL_DEFINITION ( 'international standard', 'config_control_design', 1994, #97 ) ;
#90 = MECHANICAL_CONTEXT ( 'NONE', #97, 'mechanical' ) ;
#91 = PERSON_AND_ORGANIZATION ( #85, #143 ) ;
#92 = PERSON_AND_ORGANIZATION ( #85, #143 ) ;
#93 = PRODUCT_DEFINITION_FORMATION_WITH_SPECIFIED_SOURCE ( 'ANY', '', #75, .NOT_KNOWN. ) ;
#94 = PERSON_AND_ORGANIZATION_ROLE ( 'design_owner' ) ;
#95 = DIRECTION ( 'NONE',  ( 9.244463733058732095E-31, 1.000000000000000000, 2.602085213965210642E-16 ) ) ;
#96 = CARTESIAN_POINT ( 'NONE',  ( -4.581247977746742590E-30, 3.443326031621613030E-31, -1.312121570515021670E-15 ) ) ;
#97 = APPLICATION_CONTEXT ( 'configuration controlled 3d designs of mechanical parts and assemblies' ) ;
#98 = AXIS2_PLACEMENT_3D ( 'NONE', #4, #60, #108 ) ;
#99 = CARTESIAN_POINT ( 'NONE',  ( 0.0000000000000000000, 0.0000000000000000000, 0.0000000000000000000 ) ) ;
#100 = CC_DESIGN_PERSON_AND_ORGANIZATION_ASSIGNMENT ( #1, #94, ( #75 ) ) ;
#101 = VERTEX_POINT ( 'NONE', #114 ) ;
#102 = DIRECTION ( 'NONE',  ( 1.000000000000000000, 0.0000000000000000000, 0.0000000000000000000 ) ) ;
#103 = DIRECTION ( 'NONE',  ( -3.491481338843133355E-15, 2.624243141030043045E-16, -1.000000000000000000 ) ) ;
#104 = APPROVAL_ROLE ( '' ) ;
#105 = ADVANCED_BREP_SHAPE_REPRESENTATION ( '3422', ( #80, #149 ), #32 ) ;
#106 = APPROVAL_STATUS ( 'not_yet_approved' ) ;
#107 = LOCAL_TIME ( 13, 58, 54.00000000000000000, #141 ) ;
#108 = DIRECTION ( 'NONE',  ( 9.244463733058732095E-31, 1.000000000000000000, 2.602085213965210642E-16 ) ) ;
#109 = ORIENTED_EDGE ( 'NONE', *, *, #49, .T. ) ;
#110 = CC_DESIGN_APPROVAL ( #161, ( #83 ) ) ;
#111 = CC_DESIGN_PERSON_AND_ORGANIZATION_ASSIGNMENT ( #91, #116, ( #83 ) ) ;
#112 = CARTESIAN_POINT ( 'NONE',  ( 4.888073874380378809E-15, 5.000000000000000000, 1.399999999999997913 ) ) ;
#113 = CARTESIAN_POINT ( 'NONE',  ( 0.0000000000000000000, 20.00000000000000000, 0.0000000000000000000 ) ) ;
#114 = CARTESIAN_POINT ( 'NONE',  ( 4.888073874380385909E-15, 5.000000000000000000, 1.399999999999999689 ) ) ;
#115 = PERSON_AND_ORGANIZATION ( #85, #143 ) ;
#116 = PERSON_AND_ORGANIZATION_ROLE ( 'creator' ) ;
#117 = APPROVAL ( #153, 'UNSPECIFIED' ) ;
#118 = PRODUCT_DEFINITION_SHAPE ( 'NONE', 'NONE',  #83 ) ;
#119 = AXIS2_PLACEMENT_3D ( 'NONE', #51, #148, #95 ) ;
#120 = APPROVAL_PERSON_ORGANIZATION ( #167, #161, #104 ) ;
#121 = DIRECTION ( 'NONE',  ( 9.162495955493484480E-31, 1.000000000000000000, 2.624243141030043538E-16 ) ) ;
#122 = ORIENTED_EDGE ( 'NONE', *, *, #22, .T. ) ;
#123 = EDGE_CURVE ( 'NONE', #101, #101, #29, .T. ) ;
#124 = DIRECTION ( 'NONE',  ( 9.162495955493484480E-31, 1.000000000000000000, 2.624243141030043045E-16 ) ) ;
#125 = APPLICATION_CONTEXT ( 'configuration controlled 3d designs of mechanical parts and assemblies' ) ;
#126 = FACE_OUTER_BOUND ( 'NONE', #20, .T. ) ;
#127 = DIRECTION ( 'NONE',  ( 3.491481338843133355E-15, -2.624243141030043045E-16, 1.000000000000000000 ) ) ;
#128 = PERSON_AND_ORGANIZATION_ROLE ( 'creator' ) ;
#129 = APPLICATION_PROTOCOL_DEFINITION ( 'international standard', 'config_control_design', 1994, #125 ) ;
#130 = DATE_AND_TIME ( #24, #50 ) ;
#131 = APPROVAL_PERSON_ORGANIZATION ( #55, #48, #28 ) ;
#132 = CYLINDRICAL_SURFACE ( 'NONE', #43, 20.00000000000000000 ) ;
#133 = EDGE_LOOP ( 'NONE', ( #122 ) ) ;
#134 = ADVANCED_FACE ( 'NONE', ( #84, #88 ), #65, .T. ) ;
#135 = CARTESIAN_POINT ( 'NONE',  ( -1.832499191098697036E-29, 1.377330412648645212E-30, -5.248486282060086681E-15 ) ) ;
#136 = AXIS2_PLACEMENT_3D ( 'NONE', #165, #103, #124 ) ;
#137 = PLANE ( 'NONE',  #147 ) ;
#138 = CARTESIAN_POINT ( 'NONE',  ( 4.888073874380386697E-15, 20.00000000000000000, 1.399999999999999689 ) ) ;
#139 = CALENDAR_DATE ( 2021, 6, 12 ) ;
#140 = AXIS2_PLACEMENT_3D ( 'NONE', #135, #36, #64 ) ;
#141 = COORDINATED_UNIVERSAL_TIME_OFFSET ( 1, 0, .AHEAD. ) ;
#142 = EDGE_CURVE ( 'NONE', #21, #21, #70, .T. ) ;
#143 = ORGANIZATION ( 'UNSPECIFIED', 'UNSPECIFIED', '' ) ;
#144 = CC_DESIGN_PERSON_AND_ORGANIZATION_ASSIGNMENT ( #115, #128, ( #93 ) ) ;
#145 = FACE_OUTER_BOUND ( 'NONE', #73, .T. ) ;
#146 = EDGE_LOOP ( 'NONE', ( #34 ) ) ;
#147 = AXIS2_PLACEMENT_3D ( 'NONE', #112, #127, #40 ) ;
#148 = DIRECTION ( 'NONE',  ( -3.491481338843133355E-15, 2.624243141030043045E-16, -1.000000000000000000 ) ) ;
#149 = AXIS2_PLACEMENT_3D ( 'NONE', #35, #9, #102 ) ;
#150 = CARTESIAN_POINT ( 'NONE',  ( 0.0000000000000000000, 5.000000000000000000, 0.0000000000000000000 ) ) ;
#151 = DATE_TIME_ROLE ( 'creation_date' ) ;
#152 = ADVANCED_FACE ( 'NONE', ( #164, #126 ), #137, .T. ) ;
#153 = APPROVAL_STATUS ( 'not_yet_approved' ) ;
#154 = CIRCLE ( 'NONE', #166, 5.000000000000000000 ) ;
#155 = DATE_AND_TIME ( #41, #163 ) ;
#156 = COORDINATED_UNIVERSAL_TIME_OFFSET ( 1, 0, .AHEAD. ) ;
#157 = LOCAL_TIME ( 13, 58, 54.00000000000000000, #13 ) ;
#158 = CC_DESIGN_DATE_AND_TIME_ASSIGNMENT ( #27, #151, ( #83 ) ) ;
#159 = CC_DESIGN_APPROVAL ( #117, ( #59 ) ) ;
#160 = FACE_OUTER_BOUND ( 'NONE', #133, .T. ) ;
#161 = APPROVAL ( #38, 'UNSPECIFIED' ) ;
#162 = DIRECTION ( 'NONE',  ( -3.491481338843133355E-15, 2.624243141030043045E-16, -1.000000000000000000 ) ) ;
#163 = LOCAL_TIME ( 13, 58, 54.00000000000000000, #14 ) ;
#164 = FACE_BOUND ( 'NONE', #82, .T. ) ;
#165 = CARTESIAN_POINT ( 'NONE',  ( -6.871871966620113535E-30, 5.000000000000000000, -1.968182355772532210E-15 ) ) ;
#166 = AXIS2_PLACEMENT_3D ( 'NONE', #96, #8, #6 ) ;
#167 = PERSON_AND_ORGANIZATION ( #85, #143 ) ;
#168 = PERSON_AND_ORGANIZATION_ROLE ( 'classification_officer' ) ;
#169 = DATE_TIME_ROLE ( 'classification_date' ) ;
ENDSEC;
END-ISO-10303-21;
