ISO-10303-21;
HEADER;
FILE_DESCRIPTION (( 'STEP AP203' ),
    '1' );
FILE_NAME ('342192.step',
    '2023-09-28T13:33:20',
    ( '' ),
    ( '' ),
    'SwSTEP 2.0',
    'SolidWorks 2022',
    '' );
FILE_SCHEMA (( 'CONFIG_CONTROL_DESIGN' ));
ENDSEC;

DATA;
#1 = CARTESIAN_POINT ( 'NONE',  ( 3.526396152231565067E-13, -1.236893267138826732E-14, 101.0000000000000000 ) ) ;
#2 = ADVANCED_FACE ( 'NONE', ( #154 ), #169, .F. ) ;
#3 = DIRECTION ( 'NONE',  ( 0.000000000000000000, 1.000000000000000000, 0.000000000000000000 ) ) ;
#4 = FACE_BOUND ( 'NONE', #202, .T. ) ;
#5 = DIRECTION ( 'NONE',  ( -3.491481338843133355E-15, 1.224646799147353207E-16, -1.000000000000000000 ) ) ;
#6 = AXIS2_PLACEMENT_3D ( 'NONE', #118, #226, #61 ) ;
#7 =( LENGTH_UNIT ( ) NAMED_UNIT ( * ) SI_UNIT ( .MILLI., .METRE. ) );
#8 = COORDINATED_UNIVERSAL_TIME_OFFSET ( 1, 0, .AHEAD. ) ;
#9 = EDGE_CURVE ( 'NONE', #236, #236, #130, .T. ) ;
#10 = EDGE_LOOP ( 'NONE', ( #219 ) ) ;
#11 = AXIS2_PLACEMENT_3D ( 'NONE', #24, #225, #185 ) ;
#12 = APPROVAL_PERSON_ORGANIZATION ( #98, #220, #21 ) ;
#13 = CARTESIAN_POINT ( 'NONE',  ( 5.586370142149013368E-14, 3.799999999999998046, 16.00000000000000000 ) ) ;
#14 = CALENDAR_DATE ( 2023, 28, 9 ) ;
#15 = EDGE_LOOP ( 'NONE', ( #104 ) ) ;
#16 = APPROVAL_PERSON_ORGANIZATION ( #239, #200, #73 ) ;
#17 = LOCAL_TIME ( 15, 33, 20.00000000000000000, #132 ) ;
#18 = FACE_OUTER_BOUND ( 'NONE', #93, .T. ) ;
#19 = APPROVAL_STATUS ( 'not_yet_approved' ) ;
#20 = DIRECTION ( 'NONE',  ( -3.491481338843133355E-15, 1.224646799147353207E-16, -1.000000000000000000 ) ) ;
#21 = APPROVAL_ROLE ( '' ) ;
#22 = CIRCLE ( 'NONE', #6, 3.399999999999998579 ) ;
#23 = PRODUCT_DEFINITION_FORMATION_WITH_SPECIFIED_SOURCE ( 'ANY', '', #70, .NOT_KNOWN. ) ;
#24 = CARTESIAN_POINT ( 'NONE',  ( 3.526396152231565067E-13, -1.236893267138826732E-14, 101.0000000000000000 ) ) ;
#25 = DIRECTION ( 'NONE',  ( -3.491481338843133355E-15, 1.224646799147353207E-16, -1.000000000000000000 ) ) ;
#26 = CC_DESIGN_DATE_AND_TIME_ASSIGNMENT ( #54, #148, ( #166 ) ) ;
#27 = DIRECTION ( 'NONE',  ( -3.491481338843133355E-15, 1.224646799147353207E-16, -1.000000000000000000 ) ) ;
#28 = DIRECTION ( 'NONE',  ( 0.000000000000000000, 1.000000000000000000, 0.000000000000000000 ) ) ;
#29 = CONICAL_SURFACE ( 'NONE', #75, 3.800000000000000266, 0.5235987755983000369 ) ;
#30 = FACE_OUTER_BOUND ( 'NONE', #110, .T. ) ;
#31 = DIRECTION ( 'NONE',  ( 4.275831445896958607E-31, 1.000000000000000000, 1.224646799147353207E-16 ) ) ;
#32 = LOCAL_TIME ( 15, 33, 20.00000000000000000, #172 ) ;
#33 = ORIENTED_EDGE ( 'NONE', *, *, #34, .T. ) ;
#34 = EDGE_CURVE ( 'NONE', #122, #122, #107, .T. ) ;
#35 = APPROVAL_DATE_TIME ( #182, #171 ) ;
#36 = PERSON_AND_ORGANIZATION_ROLE ( 'design_owner' ) ;
#37 = LOCAL_TIME ( 15, 33, 20.00000000000000000, #215 ) ;
#38 = DESIGN_CONTEXT ( 'detailed design', #221, 'design' ) ;
#39 = DIRECTION ( 'NONE',  ( -3.491481338843133355E-15, 1.224646799147353207E-16, -1.000000000000000000 ) ) ;
#40 = ORIENTED_EDGE ( 'NONE', *, *, #82, .F. ) ;
#41 = ORIENTED_EDGE ( 'NONE', *, *, #85, .T. ) ;
#42 = AXIS2_PLACEMENT_3D ( 'NONE', #173, #175, #102 ) ;
#43 = CARTESIAN_POINT ( 'NONE',  ( 5.586370142149013368E-14, 2.849543587057526718E-32, 16.00000000000000000 ) ) ;
#44 = FACE_OUTER_BOUND ( 'NONE', #186, .T. ) ;
#45 = CLOSED_SHELL ( 'NONE', ( #143, #62, #95, #100, #2 ) ) ;
#46 = ADVANCED_FACE ( 'NONE', ( #241, #77 ), #217, .T. ) ;
#47 = CARTESIAN_POINT ( 'NONE',  ( 6.070163987953411536E-14, 2.999999999999988010, 17.38564064605511561 ) ) ;
#48 = ORIENTED_EDGE ( 'NONE', *, *, #9, .T. ) ;
#49 = DIRECTION ( 'NONE',  ( -3.491481338843133355E-15, 1.224646799147353207E-16, -1.000000000000000000 ) ) ;
#50 = DATE_TIME_ROLE ( 'creation_date' ) ;
#51 = LOCAL_TIME ( 15, 33, 20.00000000000000000, #141 ) ;
#52 = MANIFOLD_SOLID_BREP ( 'Corps-Déplacer/Copier1[1]', #45 ) ;
#53 = ORIENTED_EDGE ( 'NONE', *, *, #9, .F. ) ;
#54 = DATE_AND_TIME ( #129, #17 ) ;
#55 = ADVANCED_FACE ( 'NONE', ( #18 ), #170, .T. ) ;
#56 = AXIS2_PLACEMENT_3D ( 'NONE', #135, #137, #81 ) ;
#57 = CALENDAR_DATE ( 2023, 28, 9 ) ;
#58 = EDGE_LOOP ( 'NONE', ( #74 ) ) ;
#59 = EDGE_LOOP ( 'NONE', ( #133 ) ) ;
#60 = AXIS2_PLACEMENT_3D ( 'NONE', #232, #176, #101 ) ;
#61 = DIRECTION ( 'NONE',  ( 4.275831445896958607E-31, 1.000000000000000000, 1.224646799147353207E-16 ) ) ;
#62 = ADVANCED_FACE ( 'NONE', ( #147, #127 ), #29, .T. ) ;
#63 = DIRECTION ( 'NONE',  ( -3.491481338843133355E-15, 1.224646799147353207E-16, -1.000000000000000000 ) ) ;
#64 = AXIS2_PLACEMENT_3D ( 'NONE', #134, #94, #205 ) ;
#65 = FACE_OUTER_BOUND ( 'NONE', #71, .T. ) ;
#66 = VERTEX_POINT ( 'NONE', #164 ) ;
#67 = UNCERTAINTY_MEASURE_WITH_UNIT (LENGTH_MEASURE( 1.000000000000000082E-05 ), #7, 'distance_accuracy_value', 'NONE');
#68 = APPROVAL_STATUS ( 'not_yet_approved' ) ;
#69 = CIRCLE ( 'NONE', #201, 3.800000000000000266 ) ;
#70 = PRODUCT ( '342192', '342192', '', ( #162 ) ) ;
#71 = EDGE_LOOP ( 'NONE', ( #113 ) ) ;
#72 = PERSON_AND_ORGANIZATION ( #128, #119 ) ;
#73 = APPROVAL_ROLE ( '' ) ;
#74 = ORIENTED_EDGE ( 'NONE', *, *, #82, .T. ) ;
#75 = AXIS2_PLACEMENT_3D ( 'NONE', #199, #39, #149 ) ;
#76 = DIRECTION ( 'NONE',  ( -4.275831445896958607E-31, -1.000000000000000000, -1.224646799147353207E-16 ) ) ;
#77 = FACE_BOUND ( 'NONE', #15, .T. ) ;
#78 = CC_DESIGN_PERSON_AND_ORGANIZATION_ASSIGNMENT ( #89, #180, ( #106 ) ) ;
#79 = PERSON_AND_ORGANIZATION ( #128, #119 ) ;
#80 = DIRECTION ( 'NONE',  ( 0.000000000000000000, 1.000000000000000000, 0.000000000000000000 ) ) ;
#81 = DIRECTION ( 'NONE',  ( 4.054589356604707566E-31, 1.000000000000000000, 1.283923625311781696E-16 ) ) ;
#82 = EDGE_CURVE ( 'NONE', #146, #146, #115, .T. ) ;
#83 = PLANE ( 'NONE',  #42 ) ;
#84 = AXIS2_PLACEMENT_3D ( 'NONE', #222, #224, #96 ) ;
#85 = EDGE_CURVE ( 'NONE', #66, #66, #206, .T. ) ;
#86 = DIRECTION ( 'NONE',  ( 1.000000000000000000, 0.000000000000000000, 0.000000000000000000 ) ) ;
#87 = CALENDAR_DATE ( 2023, 28, 9 ) ;
#88 = ORIENTED_EDGE ( 'NONE', *, *, #152, .F. ) ;
#89 = PERSON_AND_ORGANIZATION ( #128, #119 ) ;
#90 = AXIS2_PLACEMENT_3D ( 'NONE', #191, #25, #28 ) ;
#91 = CARTESIAN_POINT ( 'NONE',  ( 3.526396152231565067E-13, 2.399999999999990585, 101.0000000000000000 ) ) ;
#92 = CARTESIAN_POINT ( 'NONE',  ( 3.505447264198505131E-13, 2.999999999999990674, 100.3999999999999915 ) ) ;
#93 = EDGE_LOOP ( 'NONE', ( #123 ) ) ;
#94 = DIRECTION ( 'NONE',  ( 3.491481338843133355E-15, -1.224646799147353207E-16, 1.000000000000000000 ) ) ;
#95 = ADVANCED_FACE ( 'NONE', ( #30, #65 ), #192, .T. ) ;
#96 = DIRECTION ( 'NONE',  ( 0.000000000000000000, 1.000000000000000000, 0.000000000000000000 ) ) ;
#97 = DIRECTION ( 'NONE',  ( 4.275831445896958607E-31, 1.000000000000000000, 1.224646799147353207E-16 ) ) ;
#98 = PERSON_AND_ORGANIZATION ( #128, #119 ) ;
#99 = APPLICATION_CONTEXT ( 'configuration controlled 3d designs of mechanical parts and assemblies' ) ;
#100 = ADVANCED_FACE ( 'NONE', ( #117, #4 ), #174, .T. ) ;
#101 = DIRECTION ( 'NONE',  ( 4.275831445896958607E-31, 1.000000000000000000, 1.224646799147353207E-16 ) ) ;
#102 = DIRECTION ( 'NONE',  ( -4.275831445896958607E-31, -1.000000000000000000, -1.224646799147353207E-16 ) ) ;
#103 = VERTEX_POINT ( 'NONE', #13 ) ;
#104 = ORIENTED_EDGE ( 'NONE', *, *, #208, .F. ) ;
#105 =( NAMED_UNIT ( * ) PLANE_ANGLE_UNIT ( ) SI_UNIT ( $, .RADIAN. ) );
#106 = PRODUCT_DEFINITION ( 'UNKNOWN', '', #23, #38 ) ;
#107 = CIRCLE ( 'NONE', #11, 2.400000000000003464 ) ;
#108 = APPROVAL_ROLE ( '' ) ;
#109 = PRODUCT_RELATED_PRODUCT_CATEGORY ( 'detail', '', ( #70 ) ) ;
#110 = EDGE_LOOP ( 'NONE', ( #53 ) ) ;
#111 = LOCAL_TIME ( 15, 33, 20.00000000000000000, #8 ) ;
#112 = PERSON_AND_ORGANIZATION ( #128, #119 ) ;
#113 = ORIENTED_EDGE ( 'NONE', *, *, #152, .T. ) ;
#114 = EDGE_LOOP ( 'NONE', ( #88 ) ) ;
#115 = CIRCLE ( 'NONE', #56, 3.799999999999999822 ) ;
#116 = PLANE ( 'NONE',  #230 ) ;
#117 = FACE_OUTER_BOUND ( 'NONE', #114, .T. ) ;
#118 = CARTESIAN_POINT ( 'NONE',  ( -1.453782691604965471E-30, 5.099183261050313677E-32, -4.163799117100999080E-16 ) ) ;
#119 = ORGANIZATION ( 'UNSPECIFIED', 'UNSPECIFIED', '' ) ;
#120 = EDGE_LOOP ( 'NONE', ( #151 ) ) ;
#121 = CC_DESIGN_PERSON_AND_ORGANIZATION_ASSIGNMENT ( #150, #126, ( #166 ) ) ;
#122 = VERTEX_POINT ( 'NONE', #91 ) ;
#123 = ORIENTED_EDGE ( 'NONE', *, *, #85, .F. ) ;
#124 = PERSON_AND_ORGANIZATION ( #128, #119 ) ;
#125 = CC_DESIGN_APPROVAL ( #200, ( #106 ) ) ;
#126 = PERSON_AND_ORGANIZATION_ROLE ( 'classification_officer' ) ;
#127 = FACE_OUTER_BOUND ( 'NONE', #59, .T. ) ;
#128 = PERSON ( 'UNSPECIFIED', 'UNSPECIFIED', 'UNSPECIFIED', ('UNSPECIFIED'), ('UNSPECIFIED'), ('UNSPECIFIED') ) ;
#129 = CALENDAR_DATE ( 2023, 28, 9 ) ;
#130 = CIRCLE ( 'NONE', #84, 2.999999999999990230 ) ;
#131 = APPROVAL_DATE_TIME ( #223, #220 ) ;
#132 = COORDINATED_UNIVERSAL_TIME_OFFSET ( 1, 0, .AHEAD. ) ;
#133 = ORIENTED_EDGE ( 'NONE', *, *, #179, .F. ) ;
#134 = CARTESIAN_POINT ( 'NONE',  ( -1.453782691604965471E-30, 5.099183261050313677E-32, -4.163799117100999080E-16 ) ) ;
#135 = CARTESIAN_POINT ( 'NONE',  ( 1.396592535537250778E-15, -4.898587196589403831E-17, 0.3999999999999992450 ) ) ;
#136 = CIRCLE ( 'NONE', #197, 3.000000000000002665 ) ;
#137 = DIRECTION ( 'NONE',  ( -3.491481338843133355E-15, 1.224646799147353207E-16, -1.000000000000000000 ) ) ;
#138 = CC_DESIGN_PERSON_AND_ORGANIZATION_ASSIGNMENT ( #72, #36, ( #70 ) ) ;
#139 = FACE_OUTER_BOUND ( 'NONE', #237, .T. ) ;
#140 =( NAMED_UNIT ( * ) SI_UNIT ( $, .STERADIAN. ) SOLID_ANGLE_UNIT ( ) );
#141 = COORDINATED_UNIVERSAL_TIME_OFFSET ( 1, 0, .AHEAD. ) ;
#142 = ORIENTED_EDGE ( 'NONE', *, *, #179, .T. ) ;
#143 = ADVANCED_FACE ( 'NONE', ( #139 ), #83, .F. ) ;
#144 = CARTESIAN_POINT ( 'NONE',  ( 1.396592535537252356E-15, 3.799999999999999822, 0.3999999999999997446 ) ) ;
#145 = DIRECTION ( 'NONE',  ( 0.000000000000000000, 0.000000000000000000, 1.000000000000000000 ) ) ;
#146 = VERTEX_POINT ( 'NONE', #144 ) ;
#147 = FACE_BOUND ( 'NONE', #163, .T. ) ;
#148 = DATE_TIME_ROLE ( 'classification_date' ) ;
#149 = DIRECTION ( 'NONE',  ( 0.000000000000000000, 1.000000000000000000, 0.000000000000000000 ) ) ;
#150 = PERSON_AND_ORGANIZATION ( #128, #119 ) ;
#151 = ORIENTED_EDGE ( 'NONE', *, *, #208, .T. ) ;
#152 = EDGE_CURVE ( 'NONE', #178, #178, #136, .T. ) ;
#153 = SECURITY_CLASSIFICATION_LEVEL ( 'unclassified' ) ;
#154 = FACE_OUTER_BOUND ( 'NONE', #10, .T. ) ;
#155 = CARTESIAN_POINT ( 'NONE',  ( -7.268913458024827354E-31, 2.549591630525156839E-32, -2.081899558550499540E-16 ) ) ;
#156 = CARTESIAN_POINT ( 'NONE',  ( 5.586370142149013368E-14, -1.959434878635765131E-15, 16.00000000000000000 ) ) ;
#157 = CARTESIAN_POINT ( 'NONE',  ( 3.505447264198505131E-13, -1.229545386343942402E-14, 100.3999999999999915 ) ) ;
#158 = APPROVAL_PERSON_ORGANIZATION ( #124, #171, #108 ) ;
#159 = DATE_AND_TIME ( #14, #111 ) ;
#160 = DATE_AND_TIME ( #87, #37 ) ;
#161 = CC_DESIGN_PERSON_AND_ORGANIZATION_ASSIGNMENT ( #112, #184, ( #23 ) ) ;
#162 = MECHANICAL_CONTEXT ( 'NONE', #99, 'mechanical' ) ;
#163 = EDGE_LOOP ( 'NONE', ( #48 ) ) ;
#164 = CARTESIAN_POINT ( 'NONE',  ( 5.586370142149013368E-14, 3.799999999999998046, 16.00000000000000000 ) ) ;
#165 =( GEOMETRIC_REPRESENTATION_CONTEXT ( 3 ) GLOBAL_UNCERTAINTY_ASSIGNED_CONTEXT ( ( #67 ) ) GLOBAL_UNIT_ASSIGNED_CONTEXT ( ( #7, #105, #140 ) ) REPRESENTATION_CONTEXT ( 'NONE', 'WORKASPACE' ) );
#166 = SECURITY_CLASSIFICATION ( '', '', #153 ) ;
#167 = DIRECTION ( 'NONE',  ( 3.491481338843133355E-15, -1.224646799147353207E-16, 1.000000000000000000 ) ) ;
#168 = CC_DESIGN_APPROVAL ( #220, ( #166 ) ) ;
#169 = PLANE ( 'NONE',  #189 ) ;
#170 = PLANE ( 'NONE',  #195 ) ;
#171 = APPROVAL ( #68, 'UNSPECIFIED' ) ;
#172 = COORDINATED_UNIVERSAL_TIME_OFFSET ( 1, 0, .AHEAD. ) ;
#173 = CARTESIAN_POINT ( 'NONE',  ( 5.586370142149013368E-14, 2.849543587057526718E-32, 16.00000000000000000 ) ) ;
#174 = CONICAL_SURFACE ( 'NONE', #243, 2.400000000000003464, 0.7853981633974335130 ) ;
#175 = DIRECTION ( 'NONE',  ( 3.491481338843133355E-15, -1.224646799147353207E-16, 1.000000000000000000 ) ) ;
#176 = DIRECTION ( 'NONE',  ( -3.491481338843133355E-15, 1.224646799147353207E-16, -1.000000000000000000 ) ) ;
#177 = PRODUCT_DEFINITION_SHAPE ( 'NONE', 'NONE',  #106 ) ;
#178 = VERTEX_POINT ( 'NONE', #92 ) ;
#179 = EDGE_CURVE ( 'NONE', #103, #103, #69, .T. ) ;
#180 = PERSON_AND_ORGANIZATION_ROLE ( 'creator' ) ;
#181 = APPLICATION_PROTOCOL_DEFINITION ( 'international standard', 'config_control_design', 1994, #221 ) ;
#182 = DATE_AND_TIME ( #213, #51 ) ;
#183 = CC_DESIGN_DATE_AND_TIME_ASSIGNMENT ( #160, #50, ( #106 ) ) ;
#184 = PERSON_AND_ORGANIZATION_ROLE ( 'design_supplier' ) ;
#185 = DIRECTION ( 'NONE',  ( 0.000000000000000000, 1.000000000000000000, 0.000000000000000000 ) ) ;
#186 = EDGE_LOOP ( 'NONE', ( #41 ) ) ;
#187 = FACE_OUTER_BOUND ( 'NONE', #204, .T. ) ;
#188 = DIRECTION ( 'NONE',  ( 0.000000000000000000, 1.000000000000000000, 0.000000000000000000 ) ) ;
#189 = AXIS2_PLACEMENT_3D ( 'NONE', #240, #20, #97 ) ;
#190 = ADVANCED_FACE ( 'NONE', ( #210 ), #116, .T. ) ;
#191 = CARTESIAN_POINT ( 'NONE',  ( 5.586370142149013368E-14, -1.959434878635765131E-15, 16.00000000000000000 ) ) ;
#192 = CYLINDRICAL_SURFACE ( 'NONE', #60, 2.999999999999996447 ) ;
#193 = CARTESIAN_POINT ( 'NONE',  ( 0.000000000000000000, 0.000000000000000000, 0.000000000000000000 ) ) ;
#194 = ADVANCED_BREP_SHAPE_REPRESENTATION ( '342192', ( #52, #211, #227 ), #165 ) ;
#195 = AXIS2_PLACEMENT_3D ( 'NONE', #43, #167, #76 ) ;
#196 = APPLICATION_PROTOCOL_DEFINITION ( 'international standard', 'config_control_design', 1994, #99 ) ;
#197 = AXIS2_PLACEMENT_3D ( 'NONE', #157, #27, #3 ) ;
#198 = CARTESIAN_POINT ( 'NONE',  ( -1.710569414459005214E-46, 3.399999999999998579, 0.000000000000000000 ) ) ;
#199 = CARTESIAN_POINT ( 'NONE',  ( 5.586370142149013368E-14, -1.959434878635765131E-15, 16.00000000000000000 ) ) ;
#200 = APPROVAL ( #234, 'UNSPECIFIED' ) ;
#201 = AXIS2_PLACEMENT_3D ( 'NONE', #156, #63, #188 ) ;
#202 = EDGE_LOOP ( 'NONE', ( #33 ) ) ;
#203 = SHAPE_DEFINITION_REPRESENTATION ( #177, #194 ) ;
#204 = EDGE_LOOP ( 'NONE', ( #40 ) ) ;
#205 = DIRECTION ( 'NONE',  ( -4.275831445896959482E-31, -1.000000000000000000, -1.224646799147353207E-16 ) ) ;
#206 = CIRCLE ( 'NONE', #90, 3.800000000000000266 ) ;
#207 = DIRECTION ( 'NONE',  ( 4.275831445896958607E-31, 1.000000000000000000, 1.224646799147353207E-16 ) ) ;
#208 = EDGE_CURVE ( 'NONE', #214, #214, #22, .T. ) ;
#209 = DIRECTION ( 'NONE',  ( -3.491481338843133355E-15, 1.224646799147353207E-16, -1.000000000000000000 ) ) ;
#210 = FACE_OUTER_BOUND ( 'NONE', #120, .T. ) ;
#211 = MANIFOLD_SOLID_BREP ( 'Corps-Déplacer/Copier1[2]', #235 ) ;
#212 = CARTESIAN_POINT ( 'NONE',  ( 0.000000000000000000, 0.000000000000000000, 0.000000000000000000 ) ) ;
#213 = CALENDAR_DATE ( 2023, 28, 9 ) ;
#214 = VERTEX_POINT ( 'NONE', #198 ) ;
#215 = COORDINATED_UNIVERSAL_TIME_OFFSET ( 1, 0, .AHEAD. ) ;
#216 = AXIS2_PLACEMENT_3D ( 'NONE', #212, #49, #31 ) ;
#217 = CONICAL_SURFACE ( 'NONE', #64, 3.399999999999998579, 0.7853981633974504994 ) ;
#218 = CC_DESIGN_APPROVAL ( #171, ( #23 ) ) ;
#219 = ORIENTED_EDGE ( 'NONE', *, *, #34, .F. ) ;
#220 = APPROVAL ( #19, 'UNSPECIFIED' ) ;
#221 = APPLICATION_CONTEXT ( 'configuration controlled 3d designs of mechanical parts and assemblies' ) ;
#222 = CARTESIAN_POINT ( 'NONE',  ( 6.070163987953411536E-14, -2.129126916831752092E-15, 17.38564064605511561 ) ) ;
#223 = DATE_AND_TIME ( #57, #32 ) ;
#224 = DIRECTION ( 'NONE',  ( -3.491481338843133355E-15, 1.224646799147353207E-16, -1.000000000000000000 ) ) ;
#225 = DIRECTION ( 'NONE',  ( -3.491481338843133355E-15, 1.224646799147353207E-16, -1.000000000000000000 ) ) ;
#226 = DIRECTION ( 'NONE',  ( -3.491481338843133355E-15, 1.224646799147353207E-16, -1.000000000000000000 ) ) ;
#227 = AXIS2_PLACEMENT_3D ( 'NONE', #193, #145, #86 ) ;
#228 = CYLINDRICAL_SURFACE ( 'NONE', #216, 3.800000000000000266 ) ;
#229 = ADVANCED_FACE ( 'NONE', ( #44, #187 ), #228, .T. ) ;
#230 = AXIS2_PLACEMENT_3D ( 'NONE', #155, #209, #207 ) ;
#231 = CC_DESIGN_SECURITY_CLASSIFICATION ( #166, ( #23 ) ) ;
#232 = CARTESIAN_POINT ( 'NONE',  ( 0.000000000000000000, 0.000000000000000000, 0.000000000000000000 ) ) ;
#233 = APPROVAL_DATE_TIME ( #159, #200 ) ;
#234 = APPROVAL_STATUS ( 'not_yet_approved' ) ;
#235 = CLOSED_SHELL ( 'NONE', ( #229, #55, #190, #46 ) ) ;
#236 = VERTEX_POINT ( 'NONE', #47 ) ;
#237 = EDGE_LOOP ( 'NONE', ( #142 ) ) ;
#238 = CC_DESIGN_PERSON_AND_ORGANIZATION_ASSIGNMENT ( #79, #242, ( #23 ) ) ;
#239 = PERSON_AND_ORGANIZATION ( #128, #119 ) ;
#240 = CARTESIAN_POINT ( 'NONE',  ( 3.526396152231565067E-13, 1.799711739194212982E-32, 101.0000000000000000 ) ) ;
#241 = FACE_OUTER_BOUND ( 'NONE', #58, .T. ) ;
#242 = PERSON_AND_ORGANIZATION_ROLE ( 'creator' ) ;
#243 = AXIS2_PLACEMENT_3D ( 'NONE', #1, #5, #80 ) ;
ENDSEC;
END-ISO-10303-21;
