ISO-10303-21;
HEADER;
FILE_DESCRIPTION (( 'STEP AP203' ),
    '1' );
FILE_NAME ('342184.step',
    '2023-09-28T13:33:20',
    ( '' ),
    ( '' ),
    'SwSTEP 2.0',
    'SolidWorks 2022',
    '' );
FILE_SCHEMA (( 'CONFIG_CONTROL_DESIGN' ));
ENDSEC;

DATA;
#1 = APPLICATION_PROTOCOL_DEFINITION ( 'international standard', 'config_control_design', 1994, #18 ) ;
#2 = AXIS2_PLACEMENT_3D ( 'NONE', #208, #241, #92 ) ;
#3 = DIRECTION ( 'NONE',  ( -4.275831445896958607E-31, -1.000000000000000000, -1.224646799147353207E-16 ) ) ;
#4 = CARTESIAN_POINT ( 'NONE',  ( 6.045974295663191502E-14, 2.999999999999988010, 17.31635861375235663 ) ) ;
#5 = CIRCLE ( 'NONE', #101, 2.999999999999990230 ) ;
#6 = CALENDAR_DATE ( 2023, 28, 9 ) ;
#7 = ORIENTED_EDGE ( 'NONE', *, *, #9, .T. ) ;
#8 = CALENDAR_DATE ( 2023, 28, 9 ) ;
#9 = EDGE_CURVE ( 'NONE', #21, #21, #198, .T. ) ;
#10 = ORIENTED_EDGE ( 'NONE', *, *, #126, .T. ) ;
#11 = AXIS2_PLACEMENT_3D ( 'NONE', #213, #175, #23 ) ;
#12 = ORIENTED_EDGE ( 'NONE', *, *, #113, .F. ) ;
#13 = FACE_BOUND ( 'NONE', #103, .T. ) ;
#14 = DIRECTION ( 'NONE',  ( -3.491481338843133355E-15, 1.224646799147353207E-16, -1.000000000000000000 ) ) ;
#15 = ADVANCED_FACE ( 'NONE', ( #161 ), #234, .F. ) ;
#16 = LOCAL_TIME ( 15, 33, 20.00000000000000000, #83 ) ;
#17 = DIRECTION ( 'NONE',  ( 0.000000000000000000, 1.000000000000000000, 0.000000000000000000 ) ) ;
#18 = APPLICATION_CONTEXT ( 'configuration controlled 3d designs of mechanical parts and assemblies' ) ;
#19 = DIRECTION ( 'NONE',  ( -3.491481338843133355E-15, 1.224646799147353207E-16, -1.000000000000000000 ) ) ;
#20 = ADVANCED_FACE ( 'NONE', ( #47 ), #124, .F. ) ;
#21 = VERTEX_POINT ( 'NONE', #140 ) ;
#22 =( NAMED_UNIT ( * ) PLANE_ANGLE_UNIT ( ) SI_UNIT ( $, .RADIAN. ) );
#23 = DIRECTION ( 'NONE',  ( 4.275831445896958607E-31, 1.000000000000000000, 1.224646799147353207E-16 ) ) ;
#24 = PERSON_AND_ORGANIZATION ( #35, #67 ) ;
#25 = LOCAL_TIME ( 15, 33, 20.00000000000000000, #123 ) ;
#26 = APPROVAL_STATUS ( 'not_yet_approved' ) ;
#27 = EDGE_LOOP ( 'NONE', ( #219 ) ) ;
#28 = APPROVAL_ROLE ( '' ) ;
#29 = EDGE_LOOP ( 'NONE', ( #87 ) ) ;
#30 = DATE_AND_TIME ( #107, #133 ) ;
#31 = CALENDAR_DATE ( 2023, 28, 9 ) ;
#32 = EDGE_LOOP ( 'NONE', ( #238 ) ) ;
#33 = APPLICATION_CONTEXT ( 'configuration controlled 3d designs of mechanical parts and assemblies' ) ;
#34 = DIRECTION ( 'NONE',  ( 0.000000000000000000, 1.000000000000000000, 0.000000000000000000 ) ) ;
#35 = PERSON ( 'UNSPECIFIED', 'UNSPECIFIED', 'UNSPECIFIED', ('UNSPECIFIED'), ('UNSPECIFIED'), ('UNSPECIFIED') ) ;
#36 = AXIS2_PLACEMENT_3D ( 'NONE', #111, #207, #229 ) ;
#37 = UNCERTAINTY_MEASURE_WITH_UNIT (LENGTH_MEASURE( 1.000000000000000082E-05 ), #100, 'distance_accuracy_value', 'NONE');
#38 = CARTESIAN_POINT ( 'NONE',  ( 0.000000000000000000, 0.000000000000000000, 0.000000000000000000 ) ) ;
#39 = CARTESIAN_POINT ( 'NONE',  ( 5.586370142149013368E-14, -1.959434878635765131E-15, 16.00000000000000000 ) ) ;
#40 = APPROVAL_PERSON_ORGANIZATION ( #90, #44, #167 ) ;
#41 = FACE_OUTER_BOUND ( 'NONE', #185, .T. ) ;
#42 = DIRECTION ( 'NONE',  ( 0.000000000000000000, 1.000000000000000000, 0.000000000000000000 ) ) ;
#43 = CARTESIAN_POINT ( 'NONE',  ( 3.505447264198505131E-13, -1.229545386343942402E-14, 100.3999999999999915 ) ) ;
#44 = APPROVAL ( #162, 'UNSPECIFIED' ) ;
#45 = PERSON_AND_ORGANIZATION_ROLE ( 'creator' ) ;
#46 = MANIFOLD_SOLID_BREP ( 'Corps-Déplacer/Copier1[1]', #119 ) ;
#47 = FACE_OUTER_BOUND ( 'NONE', #82, .T. ) ;
#48 = DIRECTION ( 'NONE',  ( 1.000000000000000000, 0.000000000000000000, 0.000000000000000000 ) ) ;
#49 = EDGE_LOOP ( 'NONE', ( #72 ) ) ;
#50 = PERSON_AND_ORGANIZATION ( #35, #67 ) ;
#51 = CALENDAR_DATE ( 2023, 28, 9 ) ;
#52 = MANIFOLD_SOLID_BREP ( 'Corps-Déplacer/Copier1[2]', #55 ) ;
#53 = DIRECTION ( 'NONE',  ( 0.000000000000000000, 1.000000000000000000, 0.000000000000000000 ) ) ;
#54 = FACE_OUTER_BOUND ( 'NONE', #168, .T. ) ;
#55 = CLOSED_SHELL ( 'NONE', ( #95, #64, #60, #141 ) ) ;
#56 = FACE_OUTER_BOUND ( 'NONE', #224, .T. ) ;
#57 = DIRECTION ( 'NONE',  ( -3.491481338843133355E-15, 1.224646799147353207E-16, -1.000000000000000000 ) ) ;
#58 = CC_DESIGN_SECURITY_CLASSIFICATION ( #158, ( #97 ) ) ;
#59 = DIRECTION ( 'NONE',  ( -3.491481338843133355E-15, 1.224646799147353207E-16, -1.000000000000000000 ) ) ;
#60 = ADVANCED_FACE ( 'NONE', ( #41 ), #109, .T. ) ;
#61 = CARTESIAN_POINT ( 'NONE',  ( -1.710569414459005214E-46, 3.359999999999998543, 0.000000000000000000 ) ) ;
#62 = AXIS2_PLACEMENT_3D ( 'NONE', #43, #19, #79 ) ;
#63 = FACE_BOUND ( 'NONE', #32, .T. ) ;
#64 = ADVANCED_FACE ( 'NONE', ( #172 ), #188, .T. ) ;
#65 = CARTESIAN_POINT ( 'NONE',  ( 5.586370142149013368E-14, 2.819548391404289894E-32, 16.00000000000000000 ) ) ;
#66 = DATE_AND_TIME ( #8, #130 ) ;
#67 = ORGANIZATION ( 'UNSPECIFIED', 'UNSPECIFIED', '' ) ;
#68 = PRODUCT_DEFINITION_SHAPE ( 'NONE', 'NONE',  #220 ) ;
#69 = ORIENTED_EDGE ( 'NONE', *, *, #152, .T. ) ;
#70 = APPROVAL_DATE_TIME ( #221, #240 ) ;
#71 = PERSON_AND_ORGANIZATION ( #35, #67 ) ;
#72 = ORIENTED_EDGE ( 'NONE', *, *, #186, .T. ) ;
#73 = APPROVAL_PERSON_ORGANIZATION ( #201, #173, #28 ) ;
#74 = DIRECTION ( 'NONE',  ( 4.275831445896958607E-31, 1.000000000000000000, 1.224646799147353207E-16 ) ) ;
#75 = CARTESIAN_POINT ( 'NONE',  ( 1.396592535537250976E-15, -4.898587196589404447E-17, 0.3999999999999993006 ) ) ;
#76 = ADVANCED_FACE ( 'NONE', ( #13, #135 ), #114, .T. ) ;
#77 = AXIS2_PLACEMENT_3D ( 'NONE', #65, #142, #216 ) ;
#78 = FACE_OUTER_BOUND ( 'NONE', #27, .T. ) ;
#79 = DIRECTION ( 'NONE',  ( 0.000000000000000000, 1.000000000000000000, 0.000000000000000000 ) ) ;
#80 = CIRCLE ( 'NONE', #183, 2.400000000000003464 ) ;
#81 = CC_DESIGN_DATE_AND_TIME_ASSIGNMENT ( #200, #199, ( #158 ) ) ;
#82 = EDGE_LOOP ( 'NONE', ( #131 ) ) ;
#83 = COORDINATED_UNIVERSAL_TIME_OFFSET ( 1, 0, .AHEAD. ) ;
#84 = DIRECTION ( 'NONE',  ( -3.491481338843133355E-15, 1.224646799147353207E-16, -1.000000000000000000 ) ) ;
#85 = DATE_TIME_ROLE ( 'creation_date' ) ;
#86 = CONICAL_SURFACE ( 'NONE', #194, 3.359999999999998543, 0.7853981633974504994 ) ;
#87 = ORIENTED_EDGE ( 'NONE', *, *, #228, .T. ) ;
#88 = PERSON_AND_ORGANIZATION ( #35, #67 ) ;
#89 = CC_DESIGN_PERSON_AND_ORGANIZATION_ASSIGNMENT ( #122, #45, ( #97 ) ) ;
#90 = PERSON_AND_ORGANIZATION ( #35, #67 ) ;
#91 = EDGE_LOOP ( 'NONE', ( #236 ) ) ;
#92 = DIRECTION ( 'NONE',  ( -4.275831445896958607E-31, -1.000000000000000000, -1.224646799147353207E-16 ) ) ;
#93 = FACE_OUTER_BOUND ( 'NONE', #203, .T. ) ;
#94 = DIRECTION ( 'NONE',  ( -3.491481338843133355E-15, 1.224646799147353207E-16, -1.000000000000000000 ) ) ;
#95 = ADVANCED_FACE ( 'NONE', ( #93, #151 ), #227, .T. ) ;
#96 = CARTESIAN_POINT ( 'NONE',  ( 3.526396152231565067E-13, -1.236893267138826732E-14, 101.0000000000000000 ) ) ;
#97 = PRODUCT_DEFINITION_FORMATION_WITH_SPECIFIED_SOURCE ( 'ANY', '', #187, .NOT_KNOWN. ) ;
#98 = CC_DESIGN_PERSON_AND_ORGANIZATION_ASSIGNMENT ( #71, #218, ( #220 ) ) ;
#99 = ADVANCED_BREP_SHAPE_REPRESENTATION ( '342184', ( #46, #52, #222 ), #139 ) ;
#100 =( LENGTH_UNIT ( ) NAMED_UNIT ( * ) SI_UNIT ( .MILLI., .METRE. ) );
#101 = AXIS2_PLACEMENT_3D ( 'NONE', #132, #205, #17 ) ;
#102 = COORDINATED_UNIVERSAL_TIME_OFFSET ( 1, 0, .AHEAD. ) ;
#103 = EDGE_LOOP ( 'NONE', ( #10 ) ) ;
#104 = PERSON_AND_ORGANIZATION_ROLE ( 'design_supplier' ) ;
#105 = CC_DESIGN_PERSON_AND_ORGANIZATION_ASSIGNMENT ( #88, #104, ( #97 ) ) ;
#106 = AXIS2_PLACEMENT_3D ( 'NONE', #171, #94, #242 ) ;
#107 = CALENDAR_DATE ( 2023, 28, 9 ) ;
#108 = EDGE_LOOP ( 'NONE', ( #163 ) ) ;
#109 = PLANE ( 'NONE',  #214 ) ;
#110 = AXIS2_PLACEMENT_3D ( 'NONE', #75, #150, #226 ) ;
#111 = CARTESIAN_POINT ( 'NONE',  ( 3.526396152231565067E-13, 1.799711739194212982E-32, 101.0000000000000000 ) ) ;
#112 = DIRECTION ( 'NONE',  ( 0.000000000000000000, 1.000000000000000000, 0.000000000000000000 ) ) ;
#113 = EDGE_CURVE ( 'NONE', #121, #121, #164, .T. ) ;
#114 = CONICAL_SURFACE ( 'NONE', #191, 3.760000000000000231, 0.5235987755983009251 ) ;
#115 = CONICAL_SURFACE ( 'NONE', #232, 2.400000000000003464, 0.7853981633974335130 ) ;
#116 = VERTEX_POINT ( 'NONE', #215 ) ;
#117 = ADVANCED_FACE ( 'NONE', ( #56, #149 ), #189, .T. ) ;
#118 = VERTEX_POINT ( 'NONE', #4 ) ;
#119 = CLOSED_SHELL ( 'NONE', ( #15, #76, #117, #212, #20 ) ) ;
#120 = CARTESIAN_POINT ( 'NONE',  ( 1.396592535537252553E-15, 3.759999999999999787, 0.3999999999999997446 ) ) ;
#121 = VERTEX_POINT ( 'NONE', #120 ) ;
#122 = PERSON_AND_ORGANIZATION ( #35, #67 ) ;
#123 = COORDINATED_UNIVERSAL_TIME_OFFSET ( 1, 0, .AHEAD. ) ;
#124 = PLANE ( 'NONE',  #36 ) ;
#125 = ORIENTED_EDGE ( 'NONE', *, *, #126, .F. ) ;
#126 = EDGE_CURVE ( 'NONE', #118, #118, #5, .T. ) ;
#127 = APPROVAL_STATUS ( 'not_yet_approved' ) ;
#128 = EDGE_LOOP ( 'NONE', ( #12 ) ) ;
#129 = COORDINATED_UNIVERSAL_TIME_OFFSET ( 1, 0, .AHEAD. ) ;
#130 = LOCAL_TIME ( 15, 33, 20.00000000000000000, #102 ) ;
#131 = ORIENTED_EDGE ( 'NONE', *, *, #137, .F. ) ;
#132 = CARTESIAN_POINT ( 'NONE',  ( 6.045974295663191502E-14, -2.120642314921952527E-15, 17.31635861375235663 ) ) ;
#133 = LOCAL_TIME ( 15, 33, 20.00000000000000000, #129 ) ;
#134 = CARTESIAN_POINT ( 'NONE',  ( -7.183396829106887621E-31, 2.519596434871920015E-32, -2.057406622567552530E-16 ) ) ;
#135 = FACE_OUTER_BOUND ( 'NONE', #166, .T. ) ;
#136 = AXIS2_PLACEMENT_3D ( 'NONE', #204, #84, #53 ) ;
#137 = EDGE_CURVE ( 'NONE', #155, #155, #80, .T. ) ;
#138 = CARTESIAN_POINT ( 'NONE',  ( -1.436679365821377524E-30, 5.039192869743840030E-32, -4.114813245135105060E-16 ) ) ;
#139 =( GEOMETRIC_REPRESENTATION_CONTEXT ( 3 ) GLOBAL_UNCERTAINTY_ASSIGNED_CONTEXT ( ( #37 ) ) GLOBAL_UNIT_ASSIGNED_CONTEXT ( ( #100, #22, #159 ) ) REPRESENTATION_CONTEXT ( 'NONE', 'WORKASPACE' ) );
#140 = CARTESIAN_POINT ( 'NONE',  ( 5.586370142149013368E-14, 3.759999999999998010, 16.00000000000000000 ) ) ;
#141 = ADVANCED_FACE ( 'NONE', ( #54, #63 ), #86, .T. ) ;
#142 = DIRECTION ( 'NONE',  ( 3.491481338843133355E-15, -1.224646799147353207E-16, 1.000000000000000000 ) ) ;
#143 = APPROVAL_DATE_TIME ( #147, #44 ) ;
#144 = ORIENTED_EDGE ( 'NONE', *, *, #113, .T. ) ;
#145 = MECHANICAL_CONTEXT ( 'NONE', #18, 'mechanical' ) ;
#146 = DIRECTION ( 'NONE',  ( 0.000000000000000000, 0.000000000000000000, 1.000000000000000000 ) ) ;
#147 = DATE_AND_TIME ( #31, #16 ) ;
#148 = AXIS2_PLACEMENT_3D ( 'NONE', #38, #14, #190 ) ;
#149 = FACE_OUTER_BOUND ( 'NONE', #49, .T. ) ;
#150 = DIRECTION ( 'NONE',  ( -3.491481338843133355E-15, 1.224646799147353207E-16, -1.000000000000000000 ) ) ;
#151 = FACE_OUTER_BOUND ( 'NONE', #128, .T. ) ;
#152 = EDGE_CURVE ( 'NONE', #196, #196, #174, .T. ) ;
#153 = DIRECTION ( 'NONE',  ( -3.491481338843133355E-15, 1.224646799147353207E-16, -1.000000000000000000 ) ) ;
#154 = CARTESIAN_POINT ( 'NONE',  ( 5.586370142149013368E-14, -1.959434878635765131E-15, 16.00000000000000000 ) ) ;
#155 = VERTEX_POINT ( 'NONE', #177 ) ;
#156 = FACE_BOUND ( 'NONE', #91, .T. ) ;
#157 = DIRECTION ( 'NONE',  ( 3.491481338843133355E-15, -1.224646799147353207E-16, 1.000000000000000000 ) ) ;
#158 = SECURITY_CLASSIFICATION ( '', '', #197 ) ;
#159 =( NAMED_UNIT ( * ) SI_UNIT ( $, .STERADIAN. ) SOLID_ANGLE_UNIT ( ) );
#160 = PERSON_AND_ORGANIZATION ( #35, #67 ) ;
#161 = FACE_OUTER_BOUND ( 'NONE', #29, .T. ) ;
#162 = APPROVAL_STATUS ( 'not_yet_approved' ) ;
#163 = ORIENTED_EDGE ( 'NONE', *, *, #9, .F. ) ;
#164 = CIRCLE ( 'NONE', #110, 3.759999999999999787 ) ;
#165 = APPROVAL_DATE_TIME ( #30, #173 ) ;
#166 = EDGE_LOOP ( 'NONE', ( #182 ) ) ;
#167 = APPROVAL_ROLE ( '' ) ;
#168 = EDGE_LOOP ( 'NONE', ( #144 ) ) ;
#169 = AXIS2_PLACEMENT_3D ( 'NONE', #154, #192, #42 ) ;
#170 = DIRECTION ( 'NONE',  ( -3.491481338843133355E-15, 1.224646799147353207E-16, -1.000000000000000000 ) ) ;
#171 = CARTESIAN_POINT ( 'NONE',  ( 0.000000000000000000, 0.000000000000000000, 0.000000000000000000 ) ) ;
#172 = FACE_OUTER_BOUND ( 'NONE', #108, .T. ) ;
#173 = APPROVAL ( #26, 'UNSPECIFIED' ) ;
#174 = CIRCLE ( 'NONE', #11, 3.359999999999998543 ) ;
#175 = DIRECTION ( 'NONE',  ( -3.491481338843133355E-15, 1.224646799147353207E-16, -1.000000000000000000 ) ) ;
#176 = CARTESIAN_POINT ( 'NONE',  ( 3.505447264198505131E-13, 2.999999999999990674, 100.3999999999999915 ) ) ;
#177 = CARTESIAN_POINT ( 'NONE',  ( 3.526396152231565067E-13, 2.399999999999990585, 101.0000000000000000 ) ) ;
#178 = LOCAL_TIME ( 15, 33, 20.00000000000000000, #217 ) ;
#179 = PRODUCT_RELATED_PRODUCT_CATEGORY ( 'detail', '', ( #187 ) ) ;
#180 = DESIGN_CONTEXT ( 'detailed design', #33, 'design' ) ;
#181 = APPROVAL_ROLE ( '' ) ;
#182 = ORIENTED_EDGE ( 'NONE', *, *, #228, .F. ) ;
#183 = AXIS2_PLACEMENT_3D ( 'NONE', #209, #170, #34 ) ;
#184 = SHAPE_DEFINITION_REPRESENTATION ( #68, #99 ) ;
#185 = EDGE_LOOP ( 'NONE', ( #69 ) ) ;
#186 = EDGE_CURVE ( 'NONE', #193, #193, #223, .T. ) ;
#187 = PRODUCT ( '342184', '342184', '', ( #145 ) ) ;
#188 = PLANE ( 'NONE',  #2 ) ;
#189 = CYLINDRICAL_SURFACE ( 'NONE', #148, 2.999999999999996447 ) ;
#190 = DIRECTION ( 'NONE',  ( 4.275831445896958607E-31, 1.000000000000000000, 1.224646799147353207E-16 ) ) ;
#191 = AXIS2_PLACEMENT_3D ( 'NONE', #39, #153, #112 ) ;
#192 = DIRECTION ( 'NONE',  ( -3.491481338843133355E-15, 1.224646799147353207E-16, -1.000000000000000000 ) ) ;
#193 = VERTEX_POINT ( 'NONE', #176 ) ;
#194 = AXIS2_PLACEMENT_3D ( 'NONE', #138, #157, #3 ) ;
#195 = CC_DESIGN_PERSON_AND_ORGANIZATION_ASSIGNMENT ( #160, #235, ( #187 ) ) ;
#196 = VERTEX_POINT ( 'NONE', #61 ) ;
#197 = SECURITY_CLASSIFICATION_LEVEL ( 'unclassified' ) ;
#198 = CIRCLE ( 'NONE', #136, 3.760000000000000231 ) ;
#199 = DATE_TIME_ROLE ( 'classification_date' ) ;
#200 = DATE_AND_TIME ( #51, #178 ) ;
#201 = PERSON_AND_ORGANIZATION ( #35, #67 ) ;
#202 = CC_DESIGN_DATE_AND_TIME_ASSIGNMENT ( #66, #85, ( #220 ) ) ;
#203 = EDGE_LOOP ( 'NONE', ( #7 ) ) ;
#204 = CARTESIAN_POINT ( 'NONE',  ( 5.586370142149013368E-14, -1.959434878635765131E-15, 16.00000000000000000 ) ) ;
#205 = DIRECTION ( 'NONE',  ( -3.491481338843133355E-15, 1.224646799147353207E-16, -1.000000000000000000 ) ) ;
#206 = CC_DESIGN_APPROVAL ( #240, ( #220 ) ) ;
#207 = DIRECTION ( 'NONE',  ( -3.491481338843133355E-15, 1.224646799147353207E-16, -1.000000000000000000 ) ) ;
#208 = CARTESIAN_POINT ( 'NONE',  ( 5.586370142149013368E-14, 2.819548391404289894E-32, 16.00000000000000000 ) ) ;
#209 = CARTESIAN_POINT ( 'NONE',  ( 3.526396152231565067E-13, -1.236893267138826732E-14, 101.0000000000000000 ) ) ;
#210 = CC_DESIGN_APPROVAL ( #173, ( #158 ) ) ;
#211 = DIRECTION ( 'NONE',  ( 0.000000000000000000, 1.000000000000000000, 0.000000000000000000 ) ) ;
#212 = ADVANCED_FACE ( 'NONE', ( #78, #156 ), #115, .T. ) ;
#213 = CARTESIAN_POINT ( 'NONE',  ( -1.436679365821377524E-30, 5.039192869743840030E-32, -4.114813245135105060E-16 ) ) ;
#214 = AXIS2_PLACEMENT_3D ( 'NONE', #134, #57, #74 ) ;
#215 = CARTESIAN_POINT ( 'NONE',  ( 5.586370142149013368E-14, 3.759999999999998010, 16.00000000000000000 ) ) ;
#216 = DIRECTION ( 'NONE',  ( -4.275831445896958607E-31, -1.000000000000000000, -1.224646799147353207E-16 ) ) ;
#217 = COORDINATED_UNIVERSAL_TIME_OFFSET ( 1, 0, .AHEAD. ) ;
#218 = PERSON_AND_ORGANIZATION_ROLE ( 'creator' ) ;
#219 = ORIENTED_EDGE ( 'NONE', *, *, #186, .F. ) ;
#220 = PRODUCT_DEFINITION ( 'UNKNOWN', '', #97, #180 ) ;
#221 = DATE_AND_TIME ( #6, #25 ) ;
#222 = AXIS2_PLACEMENT_3D ( 'NONE', #231, #146, #48 ) ;
#223 = CIRCLE ( 'NONE', #62, 3.000000000000002665 ) ;
#224 = EDGE_LOOP ( 'NONE', ( #125 ) ) ;
#225 = CC_DESIGN_PERSON_AND_ORGANIZATION_ASSIGNMENT ( #24, #233, ( #158 ) ) ;
#226 = DIRECTION ( 'NONE',  ( 4.097723285930289496E-31, 1.000000000000000000, 1.153406566473941013E-16 ) ) ;
#227 = CYLINDRICAL_SURFACE ( 'NONE', #106, 3.760000000000000231 ) ;
#228 = EDGE_CURVE ( 'NONE', #116, #116, #243, .T. ) ;
#229 = DIRECTION ( 'NONE',  ( 4.275831445896958607E-31, 1.000000000000000000, 1.224646799147353207E-16 ) ) ;
#230 = APPROVAL_PERSON_ORGANIZATION ( #50, #240, #181 ) ;
#231 = CARTESIAN_POINT ( 'NONE',  ( 0.000000000000000000, 0.000000000000000000, 0.000000000000000000 ) ) ;
#232 = AXIS2_PLACEMENT_3D ( 'NONE', #96, #59, #211 ) ;
#233 = PERSON_AND_ORGANIZATION_ROLE ( 'classification_officer' ) ;
#234 = PLANE ( 'NONE',  #77 ) ;
#235 = PERSON_AND_ORGANIZATION_ROLE ( 'design_owner' ) ;
#236 = ORIENTED_EDGE ( 'NONE', *, *, #137, .T. ) ;
#237 = CC_DESIGN_APPROVAL ( #44, ( #97 ) ) ;
#238 = ORIENTED_EDGE ( 'NONE', *, *, #152, .F. ) ;
#239 = APPLICATION_PROTOCOL_DEFINITION ( 'international standard', 'config_control_design', 1994, #33 ) ;
#240 = APPROVAL ( #127, 'UNSPECIFIED' ) ;
#241 = DIRECTION ( 'NONE',  ( 3.491481338843133355E-15, -1.224646799147353207E-16, 1.000000000000000000 ) ) ;
#242 = DIRECTION ( 'NONE',  ( 4.275831445896958607E-31, 1.000000000000000000, 1.224646799147353207E-16 ) ) ;
#243 = CIRCLE ( 'NONE', #169, 3.760000000000000231 ) ;
ENDSEC;
END-ISO-10303-21;
