ISO-10303-21;
HEADER;
FILE_DESCRIPTION (( 'STEP AP203' ),
    '1' );
FILE_NAME ('342183.step',
    '2023-09-28T13:33:19',
    ( '' ),
    ( '' ),
    'SwSTEP 2.0',
    'SolidWorks 2022',
    '' );
FILE_SCHEMA (( 'CONFIG_CONTROL_DESIGN' ));
ENDSEC;

DATA;
#1 = PERSON_AND_ORGANIZATION ( #169, #59 ) ;
#2 = ADVANCED_FACE ( 'NONE', ( #34, #218 ), #204, .T. ) ;
#3 = APPROVAL_PERSON_ORGANIZATION ( #111, #236, #200 ) ;
#4 = APPLICATION_CONTEXT ( 'configuration controlled 3d designs of mechanical parts and assemblies' ) ;
#5 = COORDINATED_UNIVERSAL_TIME_OFFSET ( 1, 0, .AHEAD. ) ;
#6 = APPROVAL_DATE_TIME ( #99, #219 ) ;
#7 = PERSON_AND_ORGANIZATION_ROLE ( 'design_owner' ) ;
#8 = EDGE_LOOP ( 'NONE', ( #203 ) ) ;
#9 = CARTESIAN_POINT ( 'NONE',  ( 5.586370142149013368E-14, -1.959434878635765131E-15, 16.00000000000000000 ) ) ;
#10 = ORIENTED_EDGE ( 'NONE', *, *, #151, .F. ) ;
#11 = CC_DESIGN_SECURITY_CLASSIFICATION ( #81, ( #201 ) ) ;
#12 = DIRECTION ( 'NONE',  ( -4.275831445896958607E-31, -1.000000000000000000, -1.224646799147353207E-16 ) ) ;
#13 = ORIENTED_EDGE ( 'NONE', *, *, #151, .T. ) ;
#14 = CONICAL_SURFACE ( 'NONE', #48, 2.400000000000003464, 0.7853981633974335130 ) ;
#15 = DIRECTION ( 'NONE',  ( -4.275831445896958607E-31, -1.000000000000000000, -1.224646799147353207E-16 ) ) ;
#16 = FACE_OUTER_BOUND ( 'NONE', #35, .T. ) ;
#17 = EDGE_CURVE ( 'NONE', #167, #167, #157, .T. ) ;
#18 = DIRECTION ( 'NONE',  ( -3.491481338843133355E-15, 1.224646799147353207E-16, -1.000000000000000000 ) ) ;
#19 = APPLICATION_CONTEXT ( 'configuration controlled 3d designs of mechanical parts and assemblies' ) ;
#20 = ADVANCED_FACE ( 'NONE', ( #146, #130 ), #56, .T. ) ;
#21 = APPLICATION_PROTOCOL_DEFINITION ( 'international standard', 'config_control_design', 1994, #19 ) ;
#22 = PERSON_AND_ORGANIZATION_ROLE ( 'creator' ) ;
#23 = AXIS2_PLACEMENT_3D ( 'NONE', #39, #58, #150 ) ;
#24 = EDGE_LOOP ( 'NONE', ( #128 ) ) ;
#25 = PRODUCT_RELATED_PRODUCT_CATEGORY ( 'detail', '', ( #221 ) ) ;
#26 = EDGE_LOOP ( 'NONE', ( #10 ) ) ;
#27 = CALENDAR_DATE ( 2023, 28, 9 ) ;
#28 = CIRCLE ( 'NONE', #239, 2.999999999999990230 ) ;
#29 = DIRECTION ( 'NONE',  ( 0.000000000000000000, 1.000000000000000000, 0.000000000000000000 ) ) ;
#30 = SHAPE_DEFINITION_REPRESENTATION ( #185, #147 ) ;
#31 = ORIENTED_EDGE ( 'NONE', *, *, #55, .T. ) ;
#32 = DIRECTION ( 'NONE',  ( 4.275831445896958607E-31, 1.000000000000000000, 1.224646799147353207E-16 ) ) ;
#33 =( GEOMETRIC_REPRESENTATION_CONTEXT ( 3 ) GLOBAL_UNCERTAINTY_ASSIGNED_CONTEXT ( ( #176 ) ) GLOBAL_UNIT_ASSIGNED_CONTEXT ( ( #122, #46, #227 ) ) REPRESENTATION_CONTEXT ( 'NONE', 'WORKASPACE' ) );
#34 = FACE_OUTER_BOUND ( 'NONE', #192, .T. ) ;
#35 = EDGE_LOOP ( 'NONE', ( #112 ) ) ;
#36 = PLANE ( 'NONE',  #97 ) ;
#37 = CLOSED_SHELL ( 'NONE', ( #94, #160, #2, #194, #98 ) ) ;
#38 = AXIS2_PLACEMENT_3D ( 'NONE', #90, #145, #32 ) ;
#39 = CARTESIAN_POINT ( 'NONE',  ( 5.586370142149013368E-14, 2.815798991947634949E-32, 16.00000000000000000 ) ) ;
#40 = CARTESIAN_POINT ( 'NONE',  ( 3.526396152231565067E-13, 1.799711739194212982E-32, 101.0000000000000000 ) ) ;
#41 = CARTESIAN_POINT ( 'NONE',  ( 3.526396152231565067E-13, -1.236893267138826732E-14, 101.0000000000000000 ) ) ;
#42 = MECHANICAL_CONTEXT ( 'NONE', #4, 'mechanical' ) ;
#43 = CARTESIAN_POINT ( 'NONE',  ( 0.000000000000000000, 0.000000000000000000, 0.000000000000000000 ) ) ;
#44 = AXIS2_PLACEMENT_3D ( 'NONE', #57, #18, #241 ) ;
#45 = CC_DESIGN_PERSON_AND_ORGANIZATION_ASSIGNMENT ( #231, #7, ( #221 ) ) ;
#46 =( NAMED_UNIT ( * ) PLANE_ANGLE_UNIT ( ) SI_UNIT ( $, .RADIAN. ) );
#47 = EDGE_LOOP ( 'NONE', ( #108 ) ) ;
#48 = AXIS2_PLACEMENT_3D ( 'NONE', #41, #149, #223 ) ;
#49 = ORIENTED_EDGE ( 'NONE', *, *, #50, .T. ) ;
#50 = EDGE_CURVE ( 'NONE', #74, #74, #120, .T. ) ;
#51 = FACE_OUTER_BOUND ( 'NONE', #105, .T. ) ;
#52 = MANIFOLD_SOLID_BREP ( 'Corps-Déplacer/Copier1[2]', #63 ) ;
#53 = CARTESIAN_POINT ( 'NONE',  ( 5.586370142149013368E-14, -1.959434878635765131E-15, 16.00000000000000000 ) ) ;
#54 = DIRECTION ( 'NONE',  ( 3.491481338843133355E-15, -1.224646799147353207E-16, 1.000000000000000000 ) ) ;
#55 = EDGE_CURVE ( 'NONE', #142, #142, #242, .T. ) ;
#56 = CONICAL_SURFACE ( 'NONE', #162, 3.354999999999998650, 0.7853981633974496113 ) ;
#57 = CARTESIAN_POINT ( 'NONE',  ( 1.396592535537251764E-15, -4.898587196589406912E-17, 0.3999999999999995226 ) ) ;
#58 = DIRECTION ( 'NONE',  ( 3.491481338843133355E-15, -1.224646799147353207E-16, 1.000000000000000000 ) ) ;
#59 = ORGANIZATION ( 'UNSPECIFIED', 'UNSPECIFIED', '' ) ;
#60 = CALENDAR_DATE ( 2023, 28, 9 ) ;
#61 = APPROVAL_STATUS ( 'not_yet_approved' ) ;
#62 = ADVANCED_FACE ( 'NONE', ( #51 ), #86, .T. ) ;
#63 = CLOSED_SHELL ( 'NONE', ( #72, #76, #62, #20 ) ) ;
#64 = AXIS2_PLACEMENT_3D ( 'NONE', #126, #68, #144 ) ;
#65 = PERSON_AND_ORGANIZATION ( #169, #59 ) ;
#66 = DATE_AND_TIME ( #229, #166 ) ;
#67 = APPROVAL ( #100, 'UNSPECIFIED' ) ;
#68 = DIRECTION ( 'NONE',  ( -3.491481338843133355E-15, 1.224646799147353207E-16, -1.000000000000000000 ) ) ;
#69 = DIRECTION ( 'NONE',  ( -3.491481338843133355E-15, 1.224646799147353207E-16, -1.000000000000000000 ) ) ;
#70 = EDGE_LOOP ( 'NONE', ( #13 ) ) ;
#71 = EDGE_LOOP ( 'NONE', ( #134 ) ) ;
#72 = ADVANCED_FACE ( 'NONE', ( #199, #163 ), #161, .T. ) ;
#73 = EDGE_LOOP ( 'NONE', ( #49 ) ) ;
#74 = VERTEX_POINT ( 'NONE', #104 ) ;
#75 = FACE_BOUND ( 'NONE', #8, .T. ) ;
#76 = ADVANCED_FACE ( 'NONE', ( #164 ), #170, .T. ) ;
#77 = DIRECTION ( 'NONE',  ( 1.000000000000000000, 0.000000000000000000, 0.000000000000000000 ) ) ;
#78 = APPROVAL_PERSON_ORGANIZATION ( #139, #67, #80 ) ;
#79 = APPROVAL_ROLE ( '' ) ;
#80 = APPROVAL_ROLE ( '' ) ;
#81 = SECURITY_CLASSIFICATION ( '', '', #190 ) ;
#82 = DATE_AND_TIME ( #89, #186 ) ;
#83 = CARTESIAN_POINT ( 'NONE',  ( 3.526396152231565067E-13, -1.236893267138826732E-14, 101.0000000000000000 ) ) ;
#84 = DIRECTION ( 'NONE',  ( 0.000000000000000000, 1.000000000000000000, 0.000000000000000000 ) ) ;
#85 = LOCAL_TIME ( 15, 33, 19.00000000000000000, #103 ) ;
#86 = PLANE ( 'NONE',  #64 ) ;
#87 = DIRECTION ( 'NONE',  ( 4.275831445896958607E-31, 1.000000000000000000, 1.224646799147353207E-16 ) ) ;
#88 = EDGE_CURVE ( 'NONE', #228, #228, #208, .T. ) ;
#89 = CALENDAR_DATE ( 2023, 28, 9 ) ;
#90 = CARTESIAN_POINT ( 'NONE',  ( 0.000000000000000000, 0.000000000000000000, 0.000000000000000000 ) ) ;
#91 = DIRECTION ( 'NONE',  ( 4.275831445896958607E-31, 1.000000000000000000, 1.224646799147353207E-16 ) ) ;
#92 = CC_DESIGN_APPROVAL ( #236, ( #81 ) ) ;
#93 = DESIGN_CONTEXT ( 'detailed design', #19, 'design' ) ;
#94 = ADVANCED_FACE ( 'NONE', ( #137 ), #205, .F. ) ;
#95 = DIRECTION ( 'NONE',  ( -3.491481338843133355E-15, 1.224646799147353207E-16, -1.000000000000000000 ) ) ;
#96 = CARTESIAN_POINT ( 'NONE',  ( 5.586370142149013368E-14, -1.959434878635765131E-15, 16.00000000000000000 ) ) ;
#97 = AXIS2_PLACEMENT_3D ( 'NONE', #40, #152, #135 ) ;
#98 = ADVANCED_FACE ( 'NONE', ( #210 ), #36, .F. ) ;
#99 = DATE_AND_TIME ( #177, #85 ) ;
#100 = APPROVAL_STATUS ( 'not_yet_approved' ) ;
#101 = AXIS2_PLACEMENT_3D ( 'NONE', #148, #168, #91 ) ;
#102 = DATE_TIME_ROLE ( 'creation_date' ) ;
#103 = COORDINATED_UNIVERSAL_TIME_OFFSET ( 1, 0, .AHEAD. ) ;
#104 = CARTESIAN_POINT ( 'NONE',  ( 5.586370142149013368E-14, 3.754999999999998561, 16.00000000000000000 ) ) ;
#105 = EDGE_LOOP ( 'NONE', ( #184 ) ) ;
#106 = AXIS2_PLACEMENT_3D ( 'NONE', #53, #235, #182 ) ;
#107 = EDGE_LOOP ( 'NONE', ( #140 ) ) ;
#108 = ORIENTED_EDGE ( 'NONE', *, *, #129, .T. ) ;
#109 = PERSON_AND_ORGANIZATION_ROLE ( 'classification_officer' ) ;
#110 = EDGE_CURVE ( 'NONE', #213, #213, #28, .T. ) ;
#111 = PERSON_AND_ORGANIZATION ( #169, #59 ) ;
#112 = ORIENTED_EDGE ( 'NONE', *, *, #55, .F. ) ;
#113 = CARTESIAN_POINT ( 'NONE',  ( 6.042950584126913366E-14, -2.119581739683227877E-15, 17.30769835971451442 ) ) ;
#114 = DIRECTION ( 'NONE',  ( 0.000000000000000000, 1.000000000000000000, 0.000000000000000000 ) ) ;
#115 = DIRECTION ( 'NONE',  ( 0.000000000000000000, 1.000000000000000000, 0.000000000000000000 ) ) ;
#116 = DATE_AND_TIME ( #60, #193 ) ;
#117 = CARTESIAN_POINT ( 'NONE',  ( 3.505447264198505131E-13, 2.999999999999990674, 100.3999999999999915 ) ) ;
#118 = CC_DESIGN_PERSON_AND_ORGANIZATION_ASSIGNMENT ( #1, #109, ( #81 ) ) ;
#119 = APPROVAL_DATE_TIME ( #66, #67 ) ;
#120 = CIRCLE ( 'NONE', #106, 3.755000000000000338 ) ;
#121 = AXIS2_PLACEMENT_3D ( 'NONE', #43, #212, #77 ) ;
#122 =( LENGTH_UNIT ( ) NAMED_UNIT ( * ) SI_UNIT ( .MILLI., .METRE. ) );
#123 = PERSON_AND_ORGANIZATION_ROLE ( 'creator' ) ;
#124 = EDGE_LOOP ( 'NONE', ( #31 ) ) ;
#125 = CC_DESIGN_APPROVAL ( #67, ( #178 ) ) ;
#126 = CARTESIAN_POINT ( 'NONE',  ( -7.172707250492145264E-31, 2.515847035415265070E-32, -2.054345005569684092E-16 ) ) ;
#127 = COORDINATED_UNIVERSAL_TIME_OFFSET ( 1, 0, .AHEAD. ) ;
#128 = ORIENTED_EDGE ( 'NONE', *, *, #110, .T. ) ;
#129 = EDGE_CURVE ( 'NONE', #156, #156, #141, .T. ) ;
#130 = FACE_BOUND ( 'NONE', #107, .T. ) ;
#131 = DATE_AND_TIME ( #27, #225 ) ;
#132 = AXIS2_PLACEMENT_3D ( 'NONE', #211, #95, #226 ) ;
#133 = EDGE_LOOP ( 'NONE', ( #196 ) ) ;
#134 = ORIENTED_EDGE ( 'NONE', *, *, #17, .F. ) ;
#135 = DIRECTION ( 'NONE',  ( 4.275831445896958607E-31, 1.000000000000000000, 1.224646799147353207E-16 ) ) ;
#136 = AXIS2_PLACEMENT_3D ( 'NONE', #96, #209, #115 ) ;
#137 = FACE_OUTER_BOUND ( 'NONE', #124, .T. ) ;
#138 = DIRECTION ( 'NONE',  ( -3.491481338843133355E-15, 1.224646799147353207E-16, -1.000000000000000000 ) ) ;
#139 = PERSON_AND_ORGANIZATION ( #169, #59 ) ;
#140 = ORIENTED_EDGE ( 'NONE', *, *, #88, .F. ) ;
#141 = CIRCLE ( 'NONE', #132, 3.000000000000002665 ) ;
#142 = VERTEX_POINT ( 'NONE', #175 ) ;
#143 = PERSON_AND_ORGANIZATION ( #169, #59 ) ;
#144 = DIRECTION ( 'NONE',  ( 4.275831445896958607E-31, 1.000000000000000000, 1.224646799147353207E-16 ) ) ;
#145 = DIRECTION ( 'NONE',  ( -3.491481338843133355E-15, 1.224646799147353207E-16, -1.000000000000000000 ) ) ;
#146 = FACE_OUTER_BOUND ( 'NONE', #70, .T. ) ;
#147 = ADVANCED_BREP_SHAPE_REPRESENTATION ( '342183', ( #214, #52, #121 ), #33 ) ;
#148 = CARTESIAN_POINT ( 'NONE',  ( -1.434541450098429053E-30, 5.031694070830530139E-32, -4.108690011139368185E-16 ) ) ;
#149 = DIRECTION ( 'NONE',  ( -3.491481338843133355E-15, 1.224646799147353207E-16, -1.000000000000000000 ) ) ;
#150 = DIRECTION ( 'NONE',  ( -4.275831445896958607E-31, -1.000000000000000000, -1.224646799147353207E-16 ) ) ;
#151 = EDGE_CURVE ( 'NONE', #155, #155, #172, .T. ) ;
#152 = DIRECTION ( 'NONE',  ( -3.491481338843133355E-15, 1.224646799147353207E-16, -1.000000000000000000 ) ) ;
#153 = CARTESIAN_POINT ( 'NONE',  ( 0.000000000000000000, 3.354999999999998650, 0.000000000000000000 ) ) ;
#154 = APPROVAL_PERSON_ORGANIZATION ( #216, #219, #79 ) ;
#155 = VERTEX_POINT ( 'NONE', #191 ) ;
#156 = VERTEX_POINT ( 'NONE', #117 ) ;
#157 = CIRCLE ( 'NONE', #224, 2.400000000000003464 ) ;
#158 = CC_DESIGN_APPROVAL ( #219, ( #201 ) ) ;
#159 = ORIENTED_EDGE ( 'NONE', *, *, #110, .F. ) ;
#160 = ADVANCED_FACE ( 'NONE', ( #187, #16 ), #234, .T. ) ;
#161 = CYLINDRICAL_SURFACE ( 'NONE', #198, 3.754999999999999893 ) ;
#162 = AXIS2_PLACEMENT_3D ( 'NONE', #183, #222, #12 ) ;
#163 = FACE_OUTER_BOUND ( 'NONE', #26, .T. ) ;
#164 = FACE_OUTER_BOUND ( 'NONE', #133, .T. ) ;
#165 = APPROVAL_DATE_TIME ( #131, #236 ) ;
#166 = LOCAL_TIME ( 15, 33, 19.00000000000000000, #174 ) ;
#167 = VERTEX_POINT ( 'NONE', #240 ) ;
#168 = DIRECTION ( 'NONE',  ( -3.491481338843133355E-15, 1.224646799147353207E-16, -1.000000000000000000 ) ) ;
#169 = PERSON ( 'UNSPECIFIED', 'UNSPECIFIED', 'UNSPECIFIED', ('UNSPECIFIED'), ('UNSPECIFIED'), ('UNSPECIFIED') ) ;
#170 = PLANE ( 'NONE',  #23 ) ;
#171 = CC_DESIGN_PERSON_AND_ORGANIZATION_ASSIGNMENT ( #173, #195, ( #201 ) ) ;
#172 = CIRCLE ( 'NONE', #44, 3.754999999999999449 ) ;
#173 = PERSON_AND_ORGANIZATION ( #169, #59 ) ;
#174 = COORDINATED_UNIVERSAL_TIME_OFFSET ( 1, 0, .AHEAD. ) ;
#175 = CARTESIAN_POINT ( 'NONE',  ( 5.586370142149013368E-14, 3.754999999999998561, 16.00000000000000000 ) ) ;
#176 = UNCERTAINTY_MEASURE_WITH_UNIT (LENGTH_MEASURE( 1.000000000000000082E-05 ), #122, 'distance_accuracy_value', 'NONE');
#177 = CALENDAR_DATE ( 2023, 28, 9 ) ;
#178 = PRODUCT_DEFINITION ( 'UNKNOWN', '', #201, #93 ) ;
#179 = APPLICATION_PROTOCOL_DEFINITION ( 'international standard', 'config_control_design', 1994, #4 ) ;
#180 = AXIS2_PLACEMENT_3D ( 'NONE', #188, #54, #15 ) ;
#181 = COORDINATED_UNIVERSAL_TIME_OFFSET ( 1, 0, .AHEAD. ) ;
#182 = DIRECTION ( 'NONE',  ( 0.000000000000000000, 1.000000000000000000, 0.000000000000000000 ) ) ;
#183 = CARTESIAN_POINT ( 'NONE',  ( -1.434541450098429053E-30, 5.031694070830530139E-32, -4.108690011139368185E-16 ) ) ;
#184 = ORIENTED_EDGE ( 'NONE', *, *, #88, .T. ) ;
#185 = PRODUCT_DEFINITION_SHAPE ( 'NONE', 'NONE',  #178 ) ;
#186 = LOCAL_TIME ( 15, 33, 19.00000000000000000, #181 ) ;
#187 = FACE_BOUND ( 'NONE', #24, .T. ) ;
#188 = CARTESIAN_POINT ( 'NONE',  ( 5.586370142149013368E-14, 2.815798991947634949E-32, 16.00000000000000000 ) ) ;
#189 = FACE_OUTER_BOUND ( 'NONE', #217, .T. ) ;
#190 = SECURITY_CLASSIFICATION_LEVEL ( 'unclassified' ) ;
#191 = CARTESIAN_POINT ( 'NONE',  ( 1.396592535537253342E-15, 3.754999999999999449, 0.3999999999999999667 ) ) ;
#192 = EDGE_LOOP ( 'NONE', ( #159 ) ) ;
#193 = LOCAL_TIME ( 15, 33, 19.00000000000000000, #5 ) ;
#194 = ADVANCED_FACE ( 'NONE', ( #189, #75 ), #14, .T. ) ;
#195 = PERSON_AND_ORGANIZATION_ROLE ( 'design_supplier' ) ;
#196 = ORIENTED_EDGE ( 'NONE', *, *, #50, .F. ) ;
#197 = CC_DESIGN_DATE_AND_TIME_ASSIGNMENT ( #116, #102, ( #178 ) ) ;
#198 = AXIS2_PLACEMENT_3D ( 'NONE', #233, #69, #87 ) ;
#199 = FACE_OUTER_BOUND ( 'NONE', #73, .T. ) ;
#200 = APPROVAL_ROLE ( '' ) ;
#201 = PRODUCT_DEFINITION_FORMATION_WITH_SPECIFIED_SOURCE ( 'ANY', '', #221, .NOT_KNOWN. ) ;
#202 = CC_DESIGN_DATE_AND_TIME_ASSIGNMENT ( #82, #220, ( #81 ) ) ;
#203 = ORIENTED_EDGE ( 'NONE', *, *, #17, .T. ) ;
#204 = CYLINDRICAL_SURFACE ( 'NONE', #38, 2.999999999999996447 ) ;
#205 = PLANE ( 'NONE',  #180 ) ;
#206 = CC_DESIGN_PERSON_AND_ORGANIZATION_ASSIGNMENT ( #65, #123, ( #201 ) ) ;
#207 = AXIS2_PLACEMENT_3D ( 'NONE', #9, #232, #84 ) ;
#208 = CIRCLE ( 'NONE', #101, 3.354999999999998650 ) ;
#209 = DIRECTION ( 'NONE',  ( -3.491481338843133355E-15, 1.224646799147353207E-16, -1.000000000000000000 ) ) ;
#210 = FACE_OUTER_BOUND ( 'NONE', #71, .T. ) ;
#211 = CARTESIAN_POINT ( 'NONE',  ( 3.505447264198505131E-13, -1.229545386343942402E-14, 100.3999999999999915 ) ) ;
#212 = DIRECTION ( 'NONE',  ( 0.000000000000000000, 0.000000000000000000, 1.000000000000000000 ) ) ;
#213 = VERTEX_POINT ( 'NONE', #215 ) ;
#214 = MANIFOLD_SOLID_BREP ( 'Corps-Déplacer/Copier1[1]', #37 ) ;
#215 = CARTESIAN_POINT ( 'NONE',  ( 6.042950584126913366E-14, 2.999999999999988010, 17.30769835971451442 ) ) ;
#216 = PERSON_AND_ORGANIZATION ( #169, #59 ) ;
#217 = EDGE_LOOP ( 'NONE', ( #230 ) ) ;
#218 = FACE_OUTER_BOUND ( 'NONE', #47, .T. ) ;
#219 = APPROVAL ( #61, 'UNSPECIFIED' ) ;
#220 = DATE_TIME_ROLE ( 'classification_date' ) ;
#221 = PRODUCT ( '342183', '342183', '', ( #42 ) ) ;
#222 = DIRECTION ( 'NONE',  ( 3.491481338843133355E-15, -1.224646799147353207E-16, 1.000000000000000000 ) ) ;
#223 = DIRECTION ( 'NONE',  ( 0.000000000000000000, 1.000000000000000000, 0.000000000000000000 ) ) ;
#224 = AXIS2_PLACEMENT_3D ( 'NONE', #83, #238, #29 ) ;
#225 = LOCAL_TIME ( 15, 33, 19.00000000000000000, #127 ) ;
#226 = DIRECTION ( 'NONE',  ( 0.000000000000000000, 1.000000000000000000, 0.000000000000000000 ) ) ;
#227 =( NAMED_UNIT ( * ) SI_UNIT ( $, .STERADIAN. ) SOLID_ANGLE_UNIT ( ) );
#228 = VERTEX_POINT ( 'NONE', #153 ) ;
#229 = CALENDAR_DATE ( 2023, 28, 9 ) ;
#230 = ORIENTED_EDGE ( 'NONE', *, *, #129, .F. ) ;
#231 = PERSON_AND_ORGANIZATION ( #169, #59 ) ;
#232 = DIRECTION ( 'NONE',  ( -3.491481338843133355E-15, 1.224646799147353207E-16, -1.000000000000000000 ) ) ;
#233 = CARTESIAN_POINT ( 'NONE',  ( 0.000000000000000000, 0.000000000000000000, 0.000000000000000000 ) ) ;
#234 = CONICAL_SURFACE ( 'NONE', #136, 3.755000000000000338, 0.5235987755983008141 ) ;
#235 = DIRECTION ( 'NONE',  ( -3.491481338843133355E-15, 1.224646799147353207E-16, -1.000000000000000000 ) ) ;
#236 = APPROVAL ( #237, 'UNSPECIFIED' ) ;
#237 = APPROVAL_STATUS ( 'not_yet_approved' ) ;
#238 = DIRECTION ( 'NONE',  ( -3.491481338843133355E-15, 1.224646799147353207E-16, -1.000000000000000000 ) ) ;
#239 = AXIS2_PLACEMENT_3D ( 'NONE', #113, #138, #114 ) ;
#240 = CARTESIAN_POINT ( 'NONE',  ( 3.526396152231565067E-13, 2.399999999999990585, 101.0000000000000000 ) ) ;
#241 = DIRECTION ( 'NONE',  ( 4.103179641836987667E-31, 1.000000000000000000, 1.154942394125703931E-16 ) ) ;
#242 = CIRCLE ( 'NONE', #207, 3.755000000000000338 ) ;
#243 = CC_DESIGN_PERSON_AND_ORGANIZATION_ASSIGNMENT ( #143, #22, ( #178 ) ) ;
ENDSEC;
END-ISO-10303-21;
