ISO-10303-21;
HEADER;
FILE_DESCRIPTION (( 'STEP AP203' ),
    '1' );
FILE_NAME ('342182.step',
    '2023-09-28T13:33:18',
    ( '' ),
    ( '' ),
    'SwSTEP 2.0',
    'SolidWorks 2022',
    '' );
FILE_SCHEMA (( 'CONFIG_CONTROL_DESIGN' ));
ENDSEC;

DATA;
#1 = CALENDAR_DATE ( 2023, 28, 9 ) ;
#2 = AXIS2_PLACEMENT_3D ( 'NONE', #222, #219, #37 ) ;
#3 = EDGE_LOOP ( 'NONE', ( #156 ) ) ;
#4 = PERSON_AND_ORGANIZATION_ROLE ( 'creator' ) ;
#5 = ORIENTED_EDGE ( 'NONE', *, *, #123, .T. ) ;
#6 = APPROVAL_STATUS ( 'not_yet_approved' ) ;
#7 = AXIS2_PLACEMENT_3D ( 'NONE', #42, #13, #32 ) ;
#8 = EDGE_LOOP ( 'NONE', ( #63 ) ) ;
#9 = FACE_OUTER_BOUND ( 'NONE', #8, .T. ) ;
#10 = DIRECTION ( 'NONE',  ( 3.491481338843133355E-15, -1.224646799147353207E-16, 1.000000000000000000 ) ) ;
#11 = DIRECTION ( 'NONE',  ( 0.000000000000000000, 1.000000000000000000, 0.000000000000000000 ) ) ;
#12 = CC_DESIGN_SECURITY_CLASSIFICATION ( #52, ( #38 ) ) ;
#13 = DIRECTION ( 'NONE',  ( -3.491481338843133355E-15, 1.224646799147353207E-16, -1.000000000000000000 ) ) ;
#14 = DIRECTION ( 'NONE',  ( -3.491481338843133355E-15, 1.224646799147353207E-16, -1.000000000000000000 ) ) ;
#15 = VERTEX_POINT ( 'NONE', #145 ) ;
#16 = MECHANICAL_CONTEXT ( 'NONE', #226, 'mechanical' ) ;
#17 = CARTESIAN_POINT ( 'NONE',  ( 5.586370142149013368E-14, 3.749999999999998224, 16.00000000000000000 ) ) ;
#18 = CIRCLE ( 'NONE', #130, 3.000000000000002665 ) ;
#19 = DIRECTION ( 'NONE',  ( 1.000000000000000000, 0.000000000000000000, 0.000000000000000000 ) ) ;
#20 = APPLICATION_CONTEXT ( 'configuration controlled 3d designs of mechanical parts and assemblies' ) ;
#21 = CALENDAR_DATE ( 2023, 28, 9 ) ;
#22 = FACE_BOUND ( 'NONE', #44, .T. ) ;
#23 = COORDINATED_UNIVERSAL_TIME_OFFSET ( 1, 0, .AHEAD. ) ;
#24 = ORIENTED_EDGE ( 'NONE', *, *, #237, .F. ) ;
#25 = COORDINATED_UNIVERSAL_TIME_OFFSET ( 1, 0, .AHEAD. ) ;
#26 = DIRECTION ( 'NONE',  ( 0.000000000000000000, 1.000000000000000000, 0.000000000000000000 ) ) ;
#27 = FACE_OUTER_BOUND ( 'NONE', #203, .T. ) ;
#28 = CC_DESIGN_PERSON_AND_ORGANIZATION_ASSIGNMENT ( #80, #150, ( #70 ) ) ;
#29 = CARTESIAN_POINT ( 'NONE',  ( 3.505447264198505131E-13, -1.229545386343942402E-14, 100.3999999999999915 ) ) ;
#30 = DIRECTION ( 'NONE',  ( -3.491481338843133355E-15, 1.224646799147353207E-16, -1.000000000000000000 ) ) ;
#31 = DIRECTION ( 'NONE',  ( 4.275831445896958607E-31, 1.000000000000000000, 1.224646799147353207E-16 ) ) ;
#32 = DIRECTION ( 'NONE',  ( 0.000000000000000000, 1.000000000000000000, 0.000000000000000000 ) ) ;
#33 = CARTESIAN_POINT ( 'NONE',  ( 3.505447264198505131E-13, 2.999999999999990674, 100.3999999999999915 ) ) ;
#34 = CONICAL_SURFACE ( 'NONE', #69, 3.349999999999998312, 0.7853981633974504994 ) ;
#35 = LOCAL_TIME ( 15, 33, 18.00000000000000000, #113 ) ;
#36 = CC_DESIGN_PERSON_AND_ORGANIZATION_ASSIGNMENT ( #209, #134, ( #52 ) ) ;
#37 = DIRECTION ( 'NONE',  ( 0.000000000000000000, 1.000000000000000000, 0.000000000000000000 ) ) ;
#38 = PRODUCT_DEFINITION_FORMATION_WITH_SPECIFIED_SOURCE ( 'ANY', '', #70, .NOT_KNOWN. ) ;
#39 = VERTEX_POINT ( 'NONE', #33 ) ;
#40 = ADVANCED_FACE ( 'NONE', ( #22, #206 ), #56, .T. ) ;
#41 = PERSON_AND_ORGANIZATION ( #143, #221 ) ;
#42 = CARTESIAN_POINT ( 'NONE',  ( 3.526396152231565067E-13, -1.236893267138826732E-14, 101.0000000000000000 ) ) ;
#43 = DATE_AND_TIME ( #99, #131 ) ;
#44 = EDGE_LOOP ( 'NONE', ( #65 ) ) ;
#45 = DATE_AND_TIME ( #1, #242 ) ;
#46 = ORIENTED_EDGE ( 'NONE', *, *, #123, .F. ) ;
#47 = ADVANCED_FACE ( 'NONE', ( #133, #201 ), #167, .T. ) ;
#48 = DATE_AND_TIME ( #66, #199 ) ;
#49 = DIRECTION ( 'NONE',  ( 4.275831445896958607E-31, 1.000000000000000000, 1.224646799147353207E-16 ) ) ;
#50 = PRODUCT_RELATED_PRODUCT_CATEGORY ( 'detail', '', ( #70 ) ) ;
#51 = DIRECTION ( 'NONE',  ( 0.000000000000000000, 1.000000000000000000, 0.000000000000000000 ) ) ;
#52 = SECURITY_CLASSIFICATION ( '', '', #208 ) ;
#53 = CYLINDRICAL_SURFACE ( 'NONE', #140, 3.750000000000000000 ) ;
#54 = MANIFOLD_SOLID_BREP ( 'Corps-Déplacer/Copier1[1]', #81 ) ;
#55 = CARTESIAN_POINT ( 'NONE',  ( 0.000000000000000000, 3.349999999999998312, 0.000000000000000000 ) ) ;
#56 = CONICAL_SURFACE ( 'NONE', #215, 3.750000000000000444, 0.5235987755983003700 ) ;
#57 = CIRCLE ( 'NONE', #2, 3.750000000000000444 ) ;
#58 = DIRECTION ( 'NONE',  ( -3.491481338843133355E-15, 1.224646799147353207E-16, -1.000000000000000000 ) ) ;
#59 = APPROVAL_PERSON_ORGANIZATION ( #158, #93, #86 ) ;
#60 = DATE_AND_TIME ( #102, #35 ) ;
#61 = PERSON_AND_ORGANIZATION ( #143, #221 ) ;
#62 = EDGE_LOOP ( 'NONE', ( #24 ) ) ;
#63 = ORIENTED_EDGE ( 'NONE', *, *, #243, .T. ) ;
#64 = SHAPE_DEFINITION_REPRESENTATION ( #217, #100 ) ;
#65 = ORIENTED_EDGE ( 'NONE', *, *, #220, .T. ) ;
#66 = CALENDAR_DATE ( 2023, 28, 9 ) ;
#67 = EDGE_LOOP ( 'NONE', ( #137 ) ) ;
#68 = FACE_OUTER_BOUND ( 'NONE', #101, .T. ) ;
#69 = AXIS2_PLACEMENT_3D ( 'NONE', #72, #142, #88 ) ;
#70 = PRODUCT ( '342182', '342182', '', ( #16 ) ) ;
#71 = DIRECTION ( 'NONE',  ( -3.491481338843133355E-15, 1.224646799147353207E-16, -1.000000000000000000 ) ) ;
#72 = CARTESIAN_POINT ( 'NONE',  ( -1.432403534375480406E-30, 5.024195271917221344E-32, -4.102566777143631309E-16 ) ) ;
#73 = DIRECTION ( 'NONE',  ( 4.108650548026103445E-31, 1.000000000000000000, 1.156482317317871478E-16 ) ) ;
#74 = FACE_OUTER_BOUND ( 'NONE', #231, .T. ) ;
#75 = AXIS2_PLACEMENT_3D ( 'NONE', #87, #30, #164 ) ;
#76 = CARTESIAN_POINT ( 'NONE',  ( 5.586370142149013368E-14, 3.749999999999998224, 16.00000000000000000 ) ) ;
#77 = UNCERTAINTY_MEASURE_WITH_UNIT (LENGTH_MEASURE( 1.000000000000000082E-05 ), #241, 'distance_accuracy_value', 'NONE');
#78 = DIRECTION ( 'NONE',  ( -3.491481338843133355E-15, 1.224646799147353207E-16, -1.000000000000000000 ) ) ;
#79 = CIRCLE ( 'NONE', #82, 2.999999999999990230 ) ;
#80 = PERSON_AND_ORGANIZATION ( #143, #221 ) ;
#81 = CLOSED_SHELL ( 'NONE', ( #214, #40, #179, #47, #148 ) ) ;
#82 = AXIS2_PLACEMENT_3D ( 'NONE', #235, #14, #11 ) ;
#83 = PERSON_AND_ORGANIZATION ( #143, #221 ) ;
#84 = CC_DESIGN_DATE_AND_TIME_ASSIGNMENT ( #45, #152, ( #178 ) ) ;
#85 = ORIENTED_EDGE ( 'NONE', *, *, #224, .F. ) ;
#86 = APPROVAL_ROLE ( '' ) ;
#87 = CARTESIAN_POINT ( 'NONE',  ( 3.526396152231565067E-13, 1.799711739194212982E-32, 101.0000000000000000 ) ) ;
#88 = DIRECTION ( 'NONE',  ( -4.275831445896958607E-31, -1.000000000000000000, -1.224646799147353207E-16 ) ) ;
#89 = FACE_OUTER_BOUND ( 'NONE', #169, .T. ) ;
#90 = PLANE ( 'NONE',  #172 ) ;
#91 = ADVANCED_FACE ( 'NONE', ( #89, #126 ), #34, .T. ) ;
#92 = DIRECTION ( 'NONE',  ( -3.491481338843133355E-15, 1.224646799147353207E-16, -1.000000000000000000 ) ) ;
#93 = APPROVAL ( #202, 'UNSPECIFIED' ) ;
#94 = VERTEX_POINT ( 'NONE', #193 ) ;
#95 =( NAMED_UNIT ( * ) SI_UNIT ( $, .STERADIAN. ) SOLID_ANGLE_UNIT ( ) );
#96 = APPLICATION_PROTOCOL_DEFINITION ( 'international standard', 'config_control_design', 1994, #226 ) ;
#97 = ORIENTED_EDGE ( 'NONE', *, *, #173, .T. ) ;
#98 = AXIS2_PLACEMENT_3D ( 'NONE', #192, #92, #73 ) ;
#99 = CALENDAR_DATE ( 2023, 28, 9 ) ;
#100 = ADVANCED_BREP_SHAPE_REPRESENTATION ( '342182', ( #54, #204, #120 ), #207 ) ;
#101 = EDGE_LOOP ( 'NONE', ( #103 ) ) ;
#102 = CALENDAR_DATE ( 2023, 28, 9 ) ;
#103 = ORIENTED_EDGE ( 'NONE', *, *, #224, .T. ) ;
#104 = ORIENTED_EDGE ( 'NONE', *, *, #243, .F. ) ;
#105 = FACE_OUTER_BOUND ( 'NONE', #187, .T. ) ;
#106 = DIRECTION ( 'NONE',  ( -4.275831445896958607E-31, -1.000000000000000000, -1.224646799147353207E-16 ) ) ;
#107 = CC_DESIGN_DATE_AND_TIME_ASSIGNMENT ( #60, #200, ( #52 ) ) ;
#108 = CARTESIAN_POINT ( 'NONE',  ( 5.586370142149013368E-14, 2.812049592490980004E-32, 16.00000000000000000 ) ) ;
#109 = APPROVAL_PERSON_ORGANIZATION ( #129, #157, #229 ) ;
#110 = CARTESIAN_POINT ( 'NONE',  ( 5.586370142149013368E-14, -1.959434878635765131E-15, 16.00000000000000000 ) ) ;
#111 = LOCAL_TIME ( 15, 33, 18.00000000000000000, #233 ) ;
#112 = ADVANCED_FACE ( 'NONE', ( #9, #190 ), #53, .T. ) ;
#113 = COORDINATED_UNIVERSAL_TIME_OFFSET ( 1, 0, .AHEAD. ) ;
#114 = CLOSED_SHELL ( 'NONE', ( #112, #132, #230, #91 ) ) ;
#115 = APPROVAL_PERSON_ORGANIZATION ( #41, #188, #170 ) ;
#116 = APPROVAL_DATE_TIME ( #153, #188 ) ;
#117 = CARTESIAN_POINT ( 'NONE',  ( 5.586370142149013368E-14, -1.959434878635765131E-15, 16.00000000000000000 ) ) ;
#118 = APPROVAL_STATUS ( 'not_yet_approved' ) ;
#119 = ORIENTED_EDGE ( 'NONE', *, *, #220, .F. ) ;
#120 = AXIS2_PLACEMENT_3D ( 'NONE', #197, #182, #19 ) ;
#121 = PLANE ( 'NONE',  #189 ) ;
#122 = PLANE ( 'NONE',  #75 ) ;
#123 = EDGE_CURVE ( 'NONE', #39, #39, #18, .T. ) ;
#124 = DIRECTION ( 'NONE',  ( -3.491481338843133355E-15, 1.224646799147353207E-16, -1.000000000000000000 ) ) ;
#125 = DIRECTION ( 'NONE',  ( -4.275831445896958607E-31, -1.000000000000000000, -1.224646799147353207E-16 ) ) ;
#126 = FACE_BOUND ( 'NONE', #135, .T. ) ;
#127 = VERTEX_POINT ( 'NONE', #76 ) ;
#128 = CC_DESIGN_APPROVAL ( #188, ( #52 ) ) ;
#129 = PERSON_AND_ORGANIZATION ( #143, #221 ) ;
#130 = AXIS2_PLACEMENT_3D ( 'NONE', #29, #71, #51 ) ;
#131 = LOCAL_TIME ( 15, 33, 18.00000000000000000, #23 ) ;
#132 = ADVANCED_FACE ( 'NONE', ( #213 ), #90, .T. ) ;
#133 = FACE_OUTER_BOUND ( 'NONE', #228, .T. ) ;
#134 = PERSON_AND_ORGANIZATION_ROLE ( 'classification_officer' ) ;
#135 = EDGE_LOOP ( 'NONE', ( #85 ) ) ;
#136 = APPROVAL_DATE_TIME ( #48, #157 ) ;
#137 = ORIENTED_EDGE ( 'NONE', *, *, #237, .T. ) ;
#138 = CC_DESIGN_PERSON_AND_ORGANIZATION_ASSIGNMENT ( #61, #183, ( #38 ) ) ;
#139 = DIRECTION ( 'NONE',  ( -3.491481338843133355E-15, 1.224646799147353207E-16, -1.000000000000000000 ) ) ;
#140 = AXIS2_PLACEMENT_3D ( 'NONE', #162, #124, #174 ) ;
#141 = CARTESIAN_POINT ( 'NONE',  ( -7.162017671877402031E-31, 2.512097635958610672E-32, -2.051283388571815654E-16 ) ) ;
#142 = DIRECTION ( 'NONE',  ( 3.491481338843133355E-15, -1.224646799147353207E-16, 1.000000000000000000 ) ) ;
#143 = PERSON ( 'UNSPECIFIED', 'UNSPECIFIED', 'UNSPECIFIED', ('UNSPECIFIED'), ('UNSPECIFIED'), ('UNSPECIFIED') ) ;
#144 = CC_DESIGN_APPROVAL ( #157, ( #178 ) ) ;
#145 = CARTESIAN_POINT ( 'NONE',  ( 1.396592535537252553E-15, 3.750000000000000000, 0.3999999999999997446 ) ) ;
#146 = DIRECTION ( 'NONE',  ( 0.000000000000000000, 1.000000000000000000, 0.000000000000000000 ) ) ;
#147 = AXIS2_PLACEMENT_3D ( 'NONE', #166, #78, #146 ) ;
#148 = ADVANCED_FACE ( 'NONE', ( #160 ), #122, .F. ) ;
#149 = DESIGN_CONTEXT ( 'detailed design', #20, 'design' ) ;
#150 = PERSON_AND_ORGANIZATION_ROLE ( 'design_owner' ) ;
#151 = CC_DESIGN_PERSON_AND_ORGANIZATION_ASSIGNMENT ( #186, #155, ( #38 ) ) ;
#152 = DATE_TIME_ROLE ( 'creation_date' ) ;
#153 = DATE_AND_TIME ( #21, #111 ) ;
#154 = ORIENTED_EDGE ( 'NONE', *, *, #239, .T. ) ;
#155 = PERSON_AND_ORGANIZATION_ROLE ( 'design_supplier' ) ;
#156 = ORIENTED_EDGE ( 'NONE', *, *, #239, .F. ) ;
#157 = APPROVAL ( #6, 'UNSPECIFIED' ) ;
#158 = PERSON_AND_ORGANIZATION ( #143, #221 ) ;
#159 = EDGE_LOOP ( 'NONE', ( #232 ) ) ;
#160 = FACE_OUTER_BOUND ( 'NONE', #62, .T. ) ;
#161 = CC_DESIGN_PERSON_AND_ORGANIZATION_ASSIGNMENT ( #83, #4, ( #178 ) ) ;
#162 = CARTESIAN_POINT ( 'NONE',  ( 0.000000000000000000, 0.000000000000000000, 0.000000000000000000 ) ) ;
#163 = DIRECTION ( 'NONE',  ( 3.491481338843133355E-15, -1.224646799147353207E-16, 1.000000000000000000 ) ) ;
#164 = DIRECTION ( 'NONE',  ( 4.275831445896958607E-31, 1.000000000000000000, 1.224646799147353207E-16 ) ) ;
#165 = CARTESIAN_POINT ( 'NONE',  ( -1.432403534375480406E-30, 5.024195271917221344E-32, -4.102566777143631309E-16 ) ) ;
#166 = CARTESIAN_POINT ( 'NONE',  ( 3.526396152231565067E-13, -1.236893267138826732E-14, 101.0000000000000000 ) ) ;
#167 = CONICAL_SURFACE ( 'NONE', #7, 2.400000000000003464, 0.7853981633974335130 ) ;
#168 = AXIS2_PLACEMENT_3D ( 'NONE', #110, #58, #223 ) ;
#169 = EDGE_LOOP ( 'NONE', ( #97 ) ) ;
#170 = APPROVAL_ROLE ( '' ) ;
#171 = EDGE_LOOP ( 'NONE', ( #104 ) ) ;
#172 = AXIS2_PLACEMENT_3D ( 'NONE', #108, #163, #125 ) ;
#173 = EDGE_CURVE ( 'NONE', #15, #15, #194, .T. ) ;
#174 = DIRECTION ( 'NONE',  ( 4.275831445896958607E-31, 1.000000000000000000, 1.224646799147352961E-16 ) ) ;
#175 = CARTESIAN_POINT ( 'NONE',  ( 0.000000000000000000, 0.000000000000000000, 0.000000000000000000 ) ) ;
#176 = AXIS2_PLACEMENT_3D ( 'NONE', #175, #218, #31 ) ;
#177 = CARTESIAN_POINT ( 'NONE',  ( 5.586370142149013368E-14, 2.812049592490980004E-32, 16.00000000000000000 ) ) ;
#178 = PRODUCT_DEFINITION ( 'UNKNOWN', '', #38, #149 ) ;
#179 = ADVANCED_FACE ( 'NONE', ( #74, #105 ), #191, .T. ) ;
#180 = VERTEX_POINT ( 'NONE', #55 ) ;
#181 = VERTEX_POINT ( 'NONE', #240 ) ;
#182 = DIRECTION ( 'NONE',  ( 0.000000000000000000, 0.000000000000000000, 1.000000000000000000 ) ) ;
#183 = PERSON_AND_ORGANIZATION_ROLE ( 'creator' ) ;
#184 = APPROVAL_DATE_TIME ( #43, #93 ) ;
#185 = AXIS2_PLACEMENT_3D ( 'NONE', #165, #139, #234 ) ;
#186 = PERSON_AND_ORGANIZATION ( #143, #221 ) ;
#187 = EDGE_LOOP ( 'NONE', ( #5 ) ) ;
#188 = APPROVAL ( #118, 'UNSPECIFIED' ) ;
#189 = AXIS2_PLACEMENT_3D ( 'NONE', #141, #211, #49 ) ;
#190 = FACE_OUTER_BOUND ( 'NONE', #159, .T. ) ;
#191 = CYLINDRICAL_SURFACE ( 'NONE', #176, 2.999999999999996447 ) ;
#192 = CARTESIAN_POINT ( 'NONE',  ( 1.396592535537250976E-15, -4.898587196589404447E-17, 0.3999999999999993006 ) ) ;
#193 = CARTESIAN_POINT ( 'NONE',  ( 6.039926872590636493E-14, 2.999999999999988010, 17.29903810567667222 ) ) ;
#194 = CIRCLE ( 'NONE', #98, 3.750000000000000000 ) ;
#195 = CC_DESIGN_APPROVAL ( #93, ( #38 ) ) ;
#196 =( NAMED_UNIT ( * ) PLANE_ANGLE_UNIT ( ) SI_UNIT ( $, .RADIAN. ) );
#197 = CARTESIAN_POINT ( 'NONE',  ( 0.000000000000000000, 0.000000000000000000, 0.000000000000000000 ) ) ;
#198 = VERTEX_POINT ( 'NONE', #17 ) ;
#199 = LOCAL_TIME ( 15, 33, 18.00000000000000000, #205 ) ;
#200 = DATE_TIME_ROLE ( 'classification_date' ) ;
#201 = FACE_BOUND ( 'NONE', #67, .T. ) ;
#202 = APPROVAL_STATUS ( 'not_yet_approved' ) ;
#203 = EDGE_LOOP ( 'NONE', ( #154 ) ) ;
#204 = MANIFOLD_SOLID_BREP ( 'Corps-Déplacer/Copier1[2]', #114 ) ;
#205 = COORDINATED_UNIVERSAL_TIME_OFFSET ( 1, 0, .AHEAD. ) ;
#206 = FACE_OUTER_BOUND ( 'NONE', #3, .T. ) ;
#207 =( GEOMETRIC_REPRESENTATION_CONTEXT ( 3 ) GLOBAL_UNCERTAINTY_ASSIGNED_CONTEXT ( ( #77 ) ) GLOBAL_UNIT_ASSIGNED_CONTEXT ( ( #241, #196, #95 ) ) REPRESENTATION_CONTEXT ( 'NONE', 'WORKASPACE' ) );
#208 = SECURITY_CLASSIFICATION_LEVEL ( 'unclassified' ) ;
#209 = PERSON_AND_ORGANIZATION ( #143, #221 ) ;
#210 = DIRECTION ( 'NONE',  ( -3.491481338843133355E-15, 1.224646799147353207E-16, -1.000000000000000000 ) ) ;
#211 = DIRECTION ( 'NONE',  ( -3.491481338843133355E-15, 1.224646799147353207E-16, -1.000000000000000000 ) ) ;
#212 = CIRCLE ( 'NONE', #147, 2.400000000000003464 ) ;
#213 = FACE_OUTER_BOUND ( 'NONE', #171, .T. ) ;
#214 = ADVANCED_FACE ( 'NONE', ( #27 ), #236, .F. ) ;
#215 = AXIS2_PLACEMENT_3D ( 'NONE', #117, #210, #26 ) ;
#216 = AXIS2_PLACEMENT_3D ( 'NONE', #177, #10, #106 ) ;
#217 = PRODUCT_DEFINITION_SHAPE ( 'NONE', 'NONE',  #178 ) ;
#218 = DIRECTION ( 'NONE',  ( -3.491481338843133355E-15, 1.224646799147353207E-16, -1.000000000000000000 ) ) ;
#219 = DIRECTION ( 'NONE',  ( -3.491481338843133355E-15, 1.224646799147353207E-16, -1.000000000000000000 ) ) ;
#220 = EDGE_CURVE ( 'NONE', #94, #94, #79, .T. ) ;
#221 = ORGANIZATION ( 'UNSPECIFIED', 'UNSPECIFIED', '' ) ;
#222 = CARTESIAN_POINT ( 'NONE',  ( 5.586370142149013368E-14, -1.959434878635765131E-15, 16.00000000000000000 ) ) ;
#223 = DIRECTION ( 'NONE',  ( 0.000000000000000000, 1.000000000000000000, 0.000000000000000000 ) ) ;
#224 = EDGE_CURVE ( 'NONE', #180, #180, #227, .T. ) ;
#225 = APPLICATION_PROTOCOL_DEFINITION ( 'international standard', 'config_control_design', 1994, #20 ) ;
#226 = APPLICATION_CONTEXT ( 'configuration controlled 3d designs of mechanical parts and assemblies' ) ;
#227 = CIRCLE ( 'NONE', #185, 3.349999999999998312 ) ;
#228 = EDGE_LOOP ( 'NONE', ( #46 ) ) ;
#229 = APPROVAL_ROLE ( '' ) ;
#230 = ADVANCED_FACE ( 'NONE', ( #68 ), #121, .T. ) ;
#231 = EDGE_LOOP ( 'NONE', ( #119 ) ) ;
#232 = ORIENTED_EDGE ( 'NONE', *, *, #173, .F. ) ;
#233 = COORDINATED_UNIVERSAL_TIME_OFFSET ( 1, 0, .AHEAD. ) ;
#234 = DIRECTION ( 'NONE',  ( 4.275831445896958607E-31, 1.000000000000000000, 1.224646799147353207E-16 ) ) ;
#235 = CARTESIAN_POINT ( 'NONE',  ( 6.039926872590636493E-14, -2.118521164444502438E-15, 17.29903810567667222 ) ) ;
#236 = PLANE ( 'NONE',  #216 ) ;
#237 = EDGE_CURVE ( 'NONE', #181, #181, #212, .T. ) ;
#238 = CIRCLE ( 'NONE', #168, 3.750000000000000444 ) ;
#239 = EDGE_CURVE ( 'NONE', #198, #198, #57, .T. ) ;
#240 = CARTESIAN_POINT ( 'NONE',  ( 3.526396152231565067E-13, 2.399999999999990585, 101.0000000000000000 ) ) ;
#241 =( LENGTH_UNIT ( ) NAMED_UNIT ( * ) SI_UNIT ( .MILLI., .METRE. ) );
#242 = LOCAL_TIME ( 15, 33, 18.00000000000000000, #25 ) ;
#243 = EDGE_CURVE ( 'NONE', #127, #127, #238, .T. ) ;
ENDSEC;
END-ISO-10303-21;
