ISO-10303-21;
HEADER;
FILE_DESCRIPTION (( 'STEP AP203' ),
    '1' );
FILE_NAME ('342172.step',
    '2023-09-28T13:33:18',
    ( '' ),
    ( '' ),
    'SwSTEP 2.0',
    'SolidWorks 2022',
    '' );
FILE_SCHEMA (( 'CONFIG_CONTROL_DESIGN' ));
ENDSEC;

DATA;
#1 = AXIS2_PLACEMENT_3D ( 'NONE', #162, #107, #54 ) ;
#2 = APPROVAL_DATE_TIME ( #203, #147 ) ;
#3 = DIRECTION ( 'NONE',  ( -4.275831445896958607E-31, -1.000000000000000000, -1.224646799147353207E-16 ) ) ;
#4 = DIRECTION ( 'NONE',  ( -3.491481338843133355E-15, 1.224646799147353207E-16, -1.000000000000000000 ) ) ;
#5 = EDGE_LOOP ( 'NONE', ( #116 ) ) ;
#6 = AXIS2_PLACEMENT_3D ( 'NONE', #126, #88, #181 ) ;
#7 = CC_DESIGN_SECURITY_CLASSIFICATION ( #161, ( #21 ) ) ;
#8 = ORIENTED_EDGE ( 'NONE', *, *, #101, .T. ) ;
#9 = CARTESIAN_POINT ( 'NONE',  ( 0.000000000000000000, 0.000000000000000000, 0.000000000000000000 ) ) ;
#10 = CARTESIAN_POINT ( 'NONE',  ( 5.586370142149013368E-14, 3.699999999999998401, 16.00000000000000000 ) ) ;
#11 = EDGE_CURVE ( 'NONE', #216, #216, #109, .T. ) ;
#12 = DIRECTION ( 'NONE',  ( 0.000000000000000000, 1.000000000000000000, 0.000000000000000000 ) ) ;
#13 = CARTESIAN_POINT ( 'NONE',  ( 3.526396152231565067E-13, -1.236893267138826732E-14, 101.0000000000000000 ) ) ;
#14 = DIRECTION ( 'NONE',  ( -3.491481338843133355E-15, 1.224646799147353207E-16, -1.000000000000000000 ) ) ;
#15 =( NAMED_UNIT ( * ) SI_UNIT ( $, .STERADIAN. ) SOLID_ANGLE_UNIT ( ) );
#16 = APPROVAL_DATE_TIME ( #110, #76 ) ;
#17 = PERSON_AND_ORGANIZATION_ROLE ( 'design_supplier' ) ;
#18 = AXIS2_PLACEMENT_3D ( 'NONE', #114, #26, #3 ) ;
#19 = PERSON_AND_ORGANIZATION ( #58, #152 ) ;
#20 = DIRECTION ( 'NONE',  ( 0.000000000000000000, 1.000000000000000000, 0.000000000000000000 ) ) ;
#21 = PRODUCT_DEFINITION_FORMATION_WITH_SPECIFIED_SOURCE ( 'ANY', '', #215, .NOT_KNOWN. ) ;
#22 = DIRECTION ( 'NONE',  ( 4.275831445896958607E-31, 1.000000000000000000, 1.224646799147353207E-16 ) ) ;
#23 = EDGE_LOOP ( 'NONE', ( #211 ) ) ;
#24 = CC_DESIGN_DATE_AND_TIME_ASSIGNMENT ( #56, #75, ( #161 ) ) ;
#25 = FACE_BOUND ( 'NONE', #65, .T. ) ;
#26 = DIRECTION ( 'NONE',  ( 3.491481338843133355E-15, -1.224646799147353207E-16, 1.000000000000000000 ) ) ;
#27 = DIRECTION ( 'NONE',  ( 4.275831445896958607E-31, 1.000000000000000000, 1.224646799147352961E-16 ) ) ;
#28 = CC_DESIGN_PERSON_AND_ORGANIZATION_ASSIGNMENT ( #19, #238, ( #161 ) ) ;
#29 = FACE_OUTER_BOUND ( 'NONE', #157, .T. ) ;
#30 = DIRECTION ( 'NONE',  ( -3.491481338843133355E-15, 1.224646799147353207E-16, -1.000000000000000000 ) ) ;
#31 = FACE_OUTER_BOUND ( 'NONE', #172, .T. ) ;
#32 = VERTEX_POINT ( 'NONE', #120 ) ;
#33 = CIRCLE ( 'NONE', #68, 2.999999999999990230 ) ;
#34 = CC_DESIGN_PERSON_AND_ORGANIZATION_ASSIGNMENT ( #39, #190, ( #98 ) ) ;
#35 = DIRECTION ( 'NONE',  ( 1.000000000000000000, 0.000000000000000000, 0.000000000000000000 ) ) ;
#36 = APPROVAL_STATUS ( 'not_yet_approved' ) ;
#37 = AXIS2_PLACEMENT_3D ( 'NONE', #13, #121, #106 ) ;
#38 = LOCAL_TIME ( 15, 33, 18.00000000000000000, #221 ) ;
#39 = PERSON_AND_ORGANIZATION ( #58, #152 ) ;
#40 = FACE_OUTER_BOUND ( 'NONE', #86, .T. ) ;
#41 = ORIENTED_EDGE ( 'NONE', *, *, #11, .T. ) ;
#42 = CIRCLE ( 'NONE', #61, 3.700000000000000622 ) ;
#43 = APPROVAL_PERSON_ORGANIZATION ( #168, #147, #243 ) ;
#44 = CARTESIAN_POINT ( 'NONE',  ( 3.526396152231565067E-13, -1.236893267138826732E-14, 101.0000000000000000 ) ) ;
#45 = SHAPE_DEFINITION_REPRESENTATION ( #219, #189 ) ;
#46 = CARTESIAN_POINT ( 'NONE',  ( -1.411024377145995867E-30, 4.949207282784129011E-32, -4.041334437186264031E-16 ) ) ;
#47 = DIRECTION ( 'NONE',  ( 0.000000000000000000, 1.000000000000000000, 0.000000000000000000 ) ) ;
#48 = LOCAL_TIME ( 15, 33, 18.00000000000000000, #183 ) ;
#49 = CARTESIAN_POINT ( 'NONE',  ( 6.009689757227862712E-14, 2.999999999999988010, 17.21243556529822882 ) ) ;
#50 = PRODUCT_RELATED_PRODUCT_CATEGORY ( 'detail', '', ( #215 ) ) ;
#51 = FACE_OUTER_BOUND ( 'NONE', #194, .T. ) ;
#52 = MANIFOLD_SOLID_BREP ( 'Corps-Déplacer/Copier1[1]', #214 ) ;
#53 = APPROVAL_PERSON_ORGANIZATION ( #130, #76, #202 ) ;
#54 = DIRECTION ( 'NONE',  ( 4.275831445896958607E-31, 1.000000000000000000, 1.224646799147353207E-16 ) ) ;
#55 = MANIFOLD_SOLID_BREP ( 'Corps-Déplacer/Copier1[2]', #129 ) ;
#56 = DATE_AND_TIME ( #167, #133 ) ;
#57 = ADVANCED_FACE ( 'NONE', ( #195, #25 ), #240, .T. ) ;
#58 = PERSON ( 'UNSPECIFIED', 'UNSPECIFIED', 'UNSPECIFIED', ('UNSPECIFIED'), ('UNSPECIFIED'), ('UNSPECIFIED') ) ;
#59 = MECHANICAL_CONTEXT ( 'NONE', #164, 'mechanical' ) ;
#60 =( LENGTH_UNIT ( ) NAMED_UNIT ( * ) SI_UNIT ( .MILLI., .METRE. ) );
#61 = AXIS2_PLACEMENT_3D ( 'NONE', #227, #64, #20 ) ;
#62 = ORIENTED_EDGE ( 'NONE', *, *, #217, .T. ) ;
#63 = FACE_OUTER_BOUND ( 'NONE', #173, .T. ) ;
#64 = DIRECTION ( 'NONE',  ( -3.491481338843133355E-15, 1.224646799147353207E-16, -1.000000000000000000 ) ) ;
#65 = EDGE_LOOP ( 'NONE', ( #99 ) ) ;
#66 = DIRECTION ( 'NONE',  ( 3.491481338843133355E-15, -1.224646799147353207E-16, 1.000000000000000000 ) ) ;
#67 = FACE_OUTER_BOUND ( 'NONE', #23, .T. ) ;
#68 = AXIS2_PLACEMENT_3D ( 'NONE', #124, #30, #160 ) ;
#69 = CYLINDRICAL_SURFACE ( 'NONE', #1, 2.999999999999996447 ) ;
#70 = DIRECTION ( 'NONE',  ( -3.491481338843133355E-15, 1.224646799147353207E-16, -1.000000000000000000 ) ) ;
#71 = ADVANCED_FACE ( 'NONE', ( #40 ), #102, .T. ) ;
#72 = VERTEX_POINT ( 'NONE', #220 ) ;
#73 = CIRCLE ( 'NONE', #204, 3.000000000000002665 ) ;
#74 = APPROVAL_PERSON_ORGANIZATION ( #131, #150, #143 ) ;
#75 = DATE_TIME_ROLE ( 'classification_date' ) ;
#76 = APPROVAL ( #36, 'UNSPECIFIED' ) ;
#77 = PERSON_AND_ORGANIZATION ( #58, #152 ) ;
#78 = AXIS2_PLACEMENT_3D ( 'NONE', #196, #230, #103 ) ;
#79 = CC_DESIGN_APPROVAL ( #76, ( #21 ) ) ;
#80 = CALENDAR_DATE ( 2023, 28, 9 ) ;
#81 = EDGE_LOOP ( 'NONE', ( #155 ) ) ;
#82 = FACE_OUTER_BOUND ( 'NONE', #228, .T. ) ;
#83 = ADVANCED_FACE ( 'NONE', ( #82 ), #104, .F. ) ;
#84 = ORIENTED_EDGE ( 'NONE', *, *, #182, .T. ) ;
#85 = EDGE_LOOP ( 'NONE', ( #118 ) ) ;
#86 = EDGE_LOOP ( 'NONE', ( #226 ) ) ;
#87 = ADVANCED_FACE ( 'NONE', ( #154, #151 ), #218, .T. ) ;
#88 = DIRECTION ( 'NONE',  ( -3.491481338843133355E-15, 1.224646799147353207E-16, -1.000000000000000000 ) ) ;
#89 = VERTEX_POINT ( 'NONE', #232 ) ;
#90 = DIRECTION ( 'NONE',  ( 0.000000000000000000, 1.000000000000000000, 0.000000000000000000 ) ) ;
#91 = DIRECTION ( 'NONE',  ( 4.275831445896958607E-31, 1.000000000000000000, 1.224646799147353207E-16 ) ) ;
#92 = DIRECTION ( 'NONE',  ( 0.000000000000000000, 1.000000000000000000, 0.000000000000000000 ) ) ;
#93 = DIRECTION ( 'NONE',  ( 0.000000000000000000, 0.000000000000000000, 1.000000000000000000 ) ) ;
#94 = CIRCLE ( 'NONE', #201, 3.700000000000000622 ) ;
#95 = LOCAL_TIME ( 15, 33, 18.00000000000000000, #145 ) ;
#96 = PERSON_AND_ORGANIZATION ( #58, #152 ) ;
#97 = APPROVAL_DATE_TIME ( #205, #150 ) ;
#98 = PRODUCT_DEFINITION ( 'UNKNOWN', '', #21, #149 ) ;
#99 = ORIENTED_EDGE ( 'NONE', *, *, #11, .F. ) ;
#100 = AXIS2_PLACEMENT_3D ( 'NONE', #46, #4, #22 ) ;
#101 = EDGE_CURVE ( 'NONE', #213, #213, #209, .T. ) ;
#102 = PLANE ( 'NONE',  #18 ) ;
#103 = DIRECTION ( 'NONE',  ( -4.275831445896959482E-31, -1.000000000000000000, -1.224646799147353207E-16 ) ) ;
#104 = PLANE ( 'NONE',  #136 ) ;
#105 = FACE_OUTER_BOUND ( 'NONE', #81, .T. ) ;
#106 = DIRECTION ( 'NONE',  ( 0.000000000000000000, 1.000000000000000000, 0.000000000000000000 ) ) ;
#107 = DIRECTION ( 'NONE',  ( -3.491481338843133355E-15, 1.224646799147353207E-16, -1.000000000000000000 ) ) ;
#108 = COORDINATED_UNIVERSAL_TIME_OFFSET ( 1, 0, .AHEAD. ) ;
#109 = CIRCLE ( 'NONE', #100, 3.299999999999998490 ) ;
#110 = DATE_AND_TIME ( #166, #38 ) ;
#111 = PERSON_AND_ORGANIZATION_ROLE ( 'design_owner' ) ;
#112 =( NAMED_UNIT ( * ) PLANE_ANGLE_UNIT ( ) SI_UNIT ( $, .RADIAN. ) );
#113 = AXIS2_PLACEMENT_3D ( 'NONE', #44, #212, #47 ) ;
#114 = CARTESIAN_POINT ( 'NONE',  ( 5.586370142149013368E-14, 2.774555597924433838E-32, 16.00000000000000000 ) ) ;
#115 = EDGE_CURVE ( 'NONE', #72, #72, #42, .T. ) ;
#116 = ORIENTED_EDGE ( 'NONE', *, *, #186, .T. ) ;
#117 = AXIS2_PLACEMENT_3D ( 'NONE', #148, #93, #35 ) ;
#118 = ORIENTED_EDGE ( 'NONE', *, *, #222, .F. ) ;
#119 = EDGE_LOOP ( 'NONE', ( #8 ) ) ;
#120 = CARTESIAN_POINT ( 'NONE',  ( 3.526396152231565067E-13, 2.399999999999990585, 101.0000000000000000 ) ) ;
#121 = DIRECTION ( 'NONE',  ( -3.491481338843133355E-15, 1.224646799147353207E-16, -1.000000000000000000 ) ) ;
#122 = CC_DESIGN_PERSON_AND_ORGANIZATION_ASSIGNMENT ( #96, #187, ( #21 ) ) ;
#123 = UNCERTAINTY_MEASURE_WITH_UNIT (LENGTH_MEASURE( 1.000000000000000082E-05 ), #60, 'distance_accuracy_value', 'NONE');
#124 = CARTESIAN_POINT ( 'NONE',  ( 6.009689757227862712E-14, -2.107915412057253968E-15, 17.21243556529822882 ) ) ;
#125 = AXIS2_PLACEMENT_3D ( 'NONE', #9, #14, #27 ) ;
#126 = CARTESIAN_POINT ( 'NONE',  ( -7.055121885729979336E-31, 2.474603641392064506E-32, -2.020667218593132015E-16 ) ) ;
#127 = CARTESIAN_POINT ( 'NONE',  ( 5.586370142149013368E-14, -1.959434878635765131E-15, 16.00000000000000000 ) ) ;
#128 = PERSON_AND_ORGANIZATION ( #58, #152 ) ;
#129 = CLOSED_SHELL ( 'NONE', ( #200, #71, #137, #57 ) ) ;
#130 = PERSON_AND_ORGANIZATION ( #58, #152 ) ;
#131 = PERSON_AND_ORGANIZATION ( #58, #152 ) ;
#132 =( GEOMETRIC_REPRESENTATION_CONTEXT ( 3 ) GLOBAL_UNCERTAINTY_ASSIGNED_CONTEXT ( ( #123 ) ) GLOBAL_UNIT_ASSIGNED_CONTEXT ( ( #60, #112, #15 ) ) REPRESENTATION_CONTEXT ( 'NONE', 'WORKASPACE' ) );
#133 = LOCAL_TIME ( 15, 33, 18.00000000000000000, #171 ) ;
#134 = CARTESIAN_POINT ( 'NONE',  ( 1.396592535537248609E-15, -4.898587196589396435E-17, 0.3999999999999986899 ) ) ;
#135 = ORIENTED_EDGE ( 'NONE', *, *, #115, .T. ) ;
#136 = AXIS2_PLACEMENT_3D ( 'NONE', #175, #66, #138 ) ;
#137 = ADVANCED_FACE ( 'NONE', ( #63 ), #207, .T. ) ;
#138 = DIRECTION ( 'NONE',  ( -4.275831445896958607E-31, -1.000000000000000000, -1.224646799147353207E-16 ) ) ;
#139 = CARTESIAN_POINT ( 'NONE',  ( 3.505447264198505131E-13, -1.229545386343942402E-14, 100.3999999999999915 ) ) ;
#140 = CARTESIAN_POINT ( 'NONE',  ( 1.396592535537250187E-15, 3.700000000000000178, 0.3999999999999990785 ) ) ;
#141 = FACE_BOUND ( 'NONE', #210, .T. ) ;
#142 = CIRCLE ( 'NONE', #37, 2.400000000000003464 ) ;
#143 = APPROVAL_ROLE ( '' ) ;
#144 = APPLICATION_PROTOCOL_DEFINITION ( 'international standard', 'config_control_design', 1994, #164 ) ;
#145 = COORDINATED_UNIVERSAL_TIME_OFFSET ( 1, 0, .AHEAD. ) ;
#146 = AXIS2_PLACEMENT_3D ( 'NONE', #198, #158, #91 ) ;
#147 = APPROVAL ( #239, 'UNSPECIFIED' ) ;
#148 = CARTESIAN_POINT ( 'NONE',  ( 0.000000000000000000, 0.000000000000000000, 0.000000000000000000 ) ) ;
#149 = DESIGN_CONTEXT ( 'detailed design', #176, 'design' ) ;
#150 = APPROVAL ( #170, 'UNSPECIFIED' ) ;
#151 = FACE_BOUND ( 'NONE', #5, .T. ) ;
#152 = ORGANIZATION ( 'UNSPECIFIED', 'UNSPECIFIED', '' ) ;
#153 = ORIENTED_EDGE ( 'NONE', *, *, #222, .T. ) ;
#154 = FACE_OUTER_BOUND ( 'NONE', #85, .T. ) ;
#155 = ORIENTED_EDGE ( 'NONE', *, *, #115, .F. ) ;
#156 = CONICAL_SURFACE ( 'NONE', #177, 3.700000000000000622, 0.5235987755982998149 ) ;
#157 = EDGE_LOOP ( 'NONE', ( #206 ) ) ;
#158 = DIRECTION ( 'NONE',  ( -3.491481338843133355E-15, 1.224646799147353207E-16, -1.000000000000000000 ) ) ;
#159 = CC_DESIGN_DATE_AND_TIME_ASSIGNMENT ( #223, #185, ( #98 ) ) ;
#160 = DIRECTION ( 'NONE',  ( 0.000000000000000000, 1.000000000000000000, 0.000000000000000000 ) ) ;
#161 = SECURITY_CLASSIFICATION ( '', '', #237 ) ;
#162 = CARTESIAN_POINT ( 'NONE',  ( 0.000000000000000000, 0.000000000000000000, 0.000000000000000000 ) ) ;
#163 = DIRECTION ( 'NONE',  ( -3.491481338843133355E-15, 1.224646799147353207E-16, -1.000000000000000000 ) ) ;
#164 = APPLICATION_CONTEXT ( 'configuration controlled 3d designs of mechanical parts and assemblies' ) ;
#165 = CARTESIAN_POINT ( 'NONE',  ( -1.710569414459005214E-46, 3.299999999999998490, 0.000000000000000000 ) ) ;
#166 = CALENDAR_DATE ( 2023, 28, 9 ) ;
#167 = CALENDAR_DATE ( 2023, 28, 9 ) ;
#168 = PERSON_AND_ORGANIZATION ( #58, #152 ) ;
#169 = ADVANCED_FACE ( 'NONE', ( #29, #51 ), #69, .T. ) ;
#170 = APPROVAL_STATUS ( 'not_yet_approved' ) ;
#171 = COORDINATED_UNIVERSAL_TIME_OFFSET ( 1, 0, .AHEAD. ) ;
#172 = EDGE_LOOP ( 'NONE', ( #62 ) ) ;
#173 = EDGE_LOOP ( 'NONE', ( #41 ) ) ;
#174 = EDGE_LOOP ( 'NONE', ( #178 ) ) ;
#175 = CARTESIAN_POINT ( 'NONE',  ( 5.586370142149013368E-14, 2.774555597924433838E-32, 16.00000000000000000 ) ) ;
#176 = APPLICATION_CONTEXT ( 'configuration controlled 3d designs of mechanical parts and assemblies' ) ;
#177 = AXIS2_PLACEMENT_3D ( 'NONE', #231, #163, #12 ) ;
#178 = ORIENTED_EDGE ( 'NONE', *, *, #101, .F. ) ;
#179 = FACE_OUTER_BOUND ( 'NONE', #174, .T. ) ;
#180 = CYLINDRICAL_SURFACE ( 'NONE', #125, 3.700000000000000178 ) ;
#181 = DIRECTION ( 'NONE',  ( 4.275831445896958607E-31, 1.000000000000000000, 1.224646799147353207E-16 ) ) ;
#182 = EDGE_CURVE ( 'NONE', #199, #199, #33, .T. ) ;
#183 = COORDINATED_UNIVERSAL_TIME_OFFSET ( 1, 0, .AHEAD. ) ;
#184 = CC_DESIGN_APPROVAL ( #150, ( #98 ) ) ;
#185 = DATE_TIME_ROLE ( 'creation_date' ) ;
#186 = EDGE_CURVE ( 'NONE', #32, #32, #142, .T. ) ;
#187 = PERSON_AND_ORGANIZATION_ROLE ( 'creator' ) ;
#188 = APPLICATION_PROTOCOL_DEFINITION ( 'international standard', 'config_control_design', 1994, #176 ) ;
#189 = ADVANCED_BREP_SHAPE_REPRESENTATION ( '342172', ( #52, #55, #117 ), #132 ) ;
#190 = PERSON_AND_ORGANIZATION_ROLE ( 'creator' ) ;
#191 = DIRECTION ( 'NONE',  ( -3.491481338843133355E-15, 1.224646799147353207E-16, -1.000000000000000000 ) ) ;
#192 = AXIS2_PLACEMENT_3D ( 'NONE', #134, #191, #225 ) ;
#193 = ADVANCED_FACE ( 'NONE', ( #67 ), #235, .F. ) ;
#194 = EDGE_LOOP ( 'NONE', ( #153 ) ) ;
#195 = FACE_OUTER_BOUND ( 'NONE', #119, .T. ) ;
#196 = CARTESIAN_POINT ( 'NONE',  ( -1.411024377145995867E-30, 4.949207282784129011E-32, -4.041334437186264031E-16 ) ) ;
#197 = VERTEX_POINT ( 'NONE', #10 ) ;
#198 = CARTESIAN_POINT ( 'NONE',  ( 3.526396152231565067E-13, 1.799711739194212982E-32, 101.0000000000000000 ) ) ;
#199 = VERTEX_POINT ( 'NONE', #49 ) ;
#200 = ADVANCED_FACE ( 'NONE', ( #31, #179 ), #180, .T. ) ;
#201 = AXIS2_PLACEMENT_3D ( 'NONE', #127, #70, #90 ) ;
#202 = APPROVAL_ROLE ( '' ) ;
#203 = DATE_AND_TIME ( #224, #95 ) ;
#204 = AXIS2_PLACEMENT_3D ( 'NONE', #139, #233, #92 ) ;
#205 = DATE_AND_TIME ( #242, #241 ) ;
#206 = ORIENTED_EDGE ( 'NONE', *, *, #182, .F. ) ;
#207 = PLANE ( 'NONE',  #6 ) ;
#208 = ADVANCED_FACE ( 'NONE', ( #141, #105 ), #156, .T. ) ;
#209 = CIRCLE ( 'NONE', #192, 3.700000000000000178 ) ;
#210 = EDGE_LOOP ( 'NONE', ( #84 ) ) ;
#211 = ORIENTED_EDGE ( 'NONE', *, *, #186, .F. ) ;
#212 = DIRECTION ( 'NONE',  ( -3.491481338843133355E-15, 1.224646799147353207E-16, -1.000000000000000000 ) ) ;
#213 = VERTEX_POINT ( 'NONE', #140 ) ;
#214 = CLOSED_SHELL ( 'NONE', ( #83, #208, #169, #87, #193 ) ) ;
#215 = PRODUCT ( '342172', '342172', '', ( #59 ) ) ;
#216 = VERTEX_POINT ( 'NONE', #165 ) ;
#217 = EDGE_CURVE ( 'NONE', #197, #197, #94, .T. ) ;
#218 = CONICAL_SURFACE ( 'NONE', #113, 2.400000000000003464, 0.7853981633974335130 ) ;
#219 = PRODUCT_DEFINITION_SHAPE ( 'NONE', 'NONE',  #98 ) ;
#220 = CARTESIAN_POINT ( 'NONE',  ( 5.586370142149013368E-14, 3.699999999999998401, 16.00000000000000000 ) ) ;
#221 = COORDINATED_UNIVERSAL_TIME_OFFSET ( 1, 0, .AHEAD. ) ;
#222 = EDGE_CURVE ( 'NONE', #89, #89, #73, .T. ) ;
#223 = DATE_AND_TIME ( #80, #48 ) ;
#224 = CALENDAR_DATE ( 2023, 28, 9 ) ;
#225 = DIRECTION ( 'NONE',  ( 4.164172852729158436E-31, 1.000000000000000000, 1.172110456741085828E-16 ) ) ;
#226 = ORIENTED_EDGE ( 'NONE', *, *, #217, .F. ) ;
#227 = CARTESIAN_POINT ( 'NONE',  ( 5.586370142149013368E-14, -1.959434878635765131E-15, 16.00000000000000000 ) ) ;
#228 = EDGE_LOOP ( 'NONE', ( #135 ) ) ;
#229 = CC_DESIGN_APPROVAL ( #147, ( #161 ) ) ;
#230 = DIRECTION ( 'NONE',  ( 3.491481338843133355E-15, -1.224646799147353207E-16, 1.000000000000000000 ) ) ;
#231 = CARTESIAN_POINT ( 'NONE',  ( 5.586370142149013368E-14, -1.959434878635765131E-15, 16.00000000000000000 ) ) ;
#232 = CARTESIAN_POINT ( 'NONE',  ( 3.505447264198505131E-13, 2.999999999999990674, 100.3999999999999915 ) ) ;
#233 = DIRECTION ( 'NONE',  ( -3.491481338843133355E-15, 1.224646799147353207E-16, -1.000000000000000000 ) ) ;
#234 = CC_DESIGN_PERSON_AND_ORGANIZATION_ASSIGNMENT ( #77, #17, ( #21 ) ) ;
#235 = PLANE ( 'NONE',  #146 ) ;
#236 = CC_DESIGN_PERSON_AND_ORGANIZATION_ASSIGNMENT ( #128, #111, ( #215 ) ) ;
#237 = SECURITY_CLASSIFICATION_LEVEL ( 'unclassified' ) ;
#238 = PERSON_AND_ORGANIZATION_ROLE ( 'classification_officer' ) ;
#239 = APPROVAL_STATUS ( 'not_yet_approved' ) ;
#240 = CONICAL_SURFACE ( 'NONE', #78, 3.299999999999998490, 0.7853981633974513876 ) ;
#241 = LOCAL_TIME ( 15, 33, 18.00000000000000000, #108 ) ;
#242 = CALENDAR_DATE ( 2023, 28, 9 ) ;
#243 = APPROVAL_ROLE ( '' ) ;
ENDSEC;
END-ISO-10303-21;
