ISO-10303-21;
HEADER;
FILE_DESCRIPTION (( 'STEP AP203' ),
    '1' );
FILE_NAME ('342162.step',
    '2023-09-28T13:33:17',
    ( '' ),
    ( '' ),
    'SwSTEP 2.0',
    'SolidWorks 2022',
    '' );
FILE_SCHEMA (( 'CONFIG_CONTROL_DESIGN' ));
ENDSEC;

DATA;
#1 = CC_DESIGN_APPROVAL ( #95, ( #203 ) ) ;
#2 = CARTESIAN_POINT ( 'NONE',  ( 5.586370142149013368E-14, 2.737061603357887124E-32, 16.00000000000000000 ) ) ;
#3 = DIRECTION ( 'NONE',  ( 3.491481338843133355E-15, -1.224646799147353207E-16, 1.000000000000000000 ) ) ;
#4 = EDGE_LOOP ( 'NONE', ( #13 ) ) ;
#5 = DIRECTION ( 'NONE',  ( -3.491481338843133355E-15, 1.224646799147353207E-16, -1.000000000000000000 ) ) ;
#6 =( NAMED_UNIT ( * ) SI_UNIT ( $, .STERADIAN. ) SOLID_ANGLE_UNIT ( ) );
#7 = VERTEX_POINT ( 'NONE', #163 ) ;
#8 = EDGE_CURVE ( 'NONE', #93, #93, #172, .T. ) ;
#9 = APPROVAL_ROLE ( '' ) ;
#10 = LOCAL_TIME ( 15, 33, 17.00000000000000000, #71 ) ;
#11 = CARTESIAN_POINT ( 'NONE',  ( 3.526396152231565067E-13, -1.236893267138826732E-14, 101.0000000000000000 ) ) ;
#12 = PERSON_AND_ORGANIZATION ( #165, #107 ) ;
#13 = ORIENTED_EDGE ( 'NONE', *, *, #113, .T. ) ;
#14 = APPROVAL_STATUS ( 'not_yet_approved' ) ;
#15 = CIRCLE ( 'NONE', #179, 3.650000000000000355 ) ;
#16 = PERSON_AND_ORGANIZATION ( #165, #107 ) ;
#17 = APPROVAL ( #14, 'UNSPECIFIED' ) ;
#18 = CARTESIAN_POINT ( 'NONE',  ( 1.396592535537249398E-15, -4.898587196589399517E-17, 0.3999999999999988565 ) ) ;
#19 = AXIS2_PLACEMENT_3D ( 'NONE', #155, #210, #146 ) ;
#20 = CARTESIAN_POINT ( 'NONE',  ( 0.000000000000000000, 0.000000000000000000, 0.000000000000000000 ) ) ;
#21 = CARTESIAN_POINT ( 'NONE',  ( -6.948226099582554889E-31, 2.437109646825517792E-32, -1.990051048614448130E-16 ) ) ;
#22 = APPLICATION_CONTEXT ( 'configuration controlled 3d designs of mechanical parts and assemblies' ) ;
#23 = CC_DESIGN_PERSON_AND_ORGANIZATION_ASSIGNMENT ( #185, #108, ( #70 ) ) ;
#24 = FACE_OUTER_BOUND ( 'NONE', #188, .T. ) ;
#25 = AXIS2_PLACEMENT_3D ( 'NONE', #2, #59, #213 ) ;
#26 = DIRECTION ( 'NONE',  ( -3.491481338843133355E-15, 1.224646799147353207E-16, -1.000000000000000000 ) ) ;
#27 = VERTEX_POINT ( 'NONE', #231 ) ;
#28 = VERTEX_POINT ( 'NONE', #88 ) ;
#29 = UNCERTAINTY_MEASURE_WITH_UNIT (LENGTH_MEASURE( 1.000000000000000082E-05 ), #32, 'distance_accuracy_value', 'NONE');
#30 = CARTESIAN_POINT ( 'NONE',  ( 0.000000000000000000, 0.000000000000000000, 0.000000000000000000 ) ) ;
#31 = VERTEX_POINT ( 'NONE', #204 ) ;
#32 =( LENGTH_UNIT ( ) NAMED_UNIT ( * ) SI_UNIT ( .MILLI., .METRE. ) );
#33 = ORIENTED_EDGE ( 'NONE', *, *, #86, .T. ) ;
#34 = CC_DESIGN_PERSON_AND_ORGANIZATION_ASSIGNMENT ( #167, #150, ( #141 ) ) ;
#35 = ORIENTED_EDGE ( 'NONE', *, *, #113, .F. ) ;
#36 = CONICAL_SURFACE ( 'NONE', #129, 3.249999999999998668, 0.7853981633974510546 ) ;
#37 = CC_DESIGN_PERSON_AND_ORGANIZATION_ASSIGNMENT ( #12, #121, ( #203 ) ) ;
#38 = DIRECTION ( 'NONE',  ( 4.275831445896958607E-31, 1.000000000000000000, 1.224646799147353207E-16 ) ) ;
#39 = FACE_OUTER_BOUND ( 'NONE', #224, .T. ) ;
#40 = CONICAL_SURFACE ( 'NONE', #225, 2.400000000000003464, 0.7853981633974335130 ) ;
#41 = DIRECTION ( 'NONE',  ( -3.491481338843133355E-15, 1.224646799147353207E-16, -1.000000000000000000 ) ) ;
#42 = ADVANCED_FACE ( 'NONE', ( #120 ), #214, .T. ) ;
#43 = ORIENTED_EDGE ( 'NONE', *, *, #80, .T. ) ;
#44 = CARTESIAN_POINT ( 'NONE',  ( 0.000000000000000000, 0.000000000000000000, 0.000000000000000000 ) ) ;
#45 = CALENDAR_DATE ( 2023, 28, 9 ) ;
#46 = APPROVAL ( #112, 'UNSPECIFIED' ) ;
#47 = MANIFOLD_SOLID_BREP ( 'Corps-Déplacer/Copier1[1]', #61 ) ;
#48 = PERSON_AND_ORGANIZATION ( #165, #107 ) ;
#49 = APPROVAL_PERSON_ORGANIZATION ( #183, #95, #9 ) ;
#50 = DIRECTION ( 'NONE',  ( -3.491481338843133355E-15, 1.224646799147353207E-16, -1.000000000000000000 ) ) ;
#51 = EDGE_LOOP ( 'NONE', ( #243 ) ) ;
#52 = CC_DESIGN_PERSON_AND_ORGANIZATION_ASSIGNMENT ( #94, #54, ( #209 ) ) ;
#53 = LOCAL_TIME ( 15, 33, 17.00000000000000000, #72 ) ;
#54 = PERSON_AND_ORGANIZATION_ROLE ( 'design_supplier' ) ;
#55 = ORIENTED_EDGE ( 'NONE', *, *, #176, .T. ) ;
#56 = AXIS2_PLACEMENT_3D ( 'NONE', #44, #26, #178 ) ;
#57 = DIRECTION ( 'NONE',  ( 4.275831445896958607E-31, 1.000000000000000000, 1.224646799147353207E-16 ) ) ;
#58 = CARTESIAN_POINT ( 'NONE',  ( 5.586370142149013368E-14, -1.959434878635765131E-15, 16.00000000000000000 ) ) ;
#59 = DIRECTION ( 'NONE',  ( 3.491481338843133355E-15, -1.224646799147353207E-16, 1.000000000000000000 ) ) ;
#60 = ADVANCED_FACE ( 'NONE', ( #158 ), #157, .F. ) ;
#61 = CLOSED_SHELL ( 'NONE', ( #223, #181, #115, #234, #60 ) ) ;
#62 = PLANE ( 'NONE',  #25 ) ;
#63 = CARTESIAN_POINT ( 'NONE',  ( -1.389645219916510978E-30, 4.874219293651035583E-32, -3.980102097228896259E-16 ) ) ;
#64 = DIRECTION ( 'NONE',  ( 1.000000000000000000, 0.000000000000000000, 0.000000000000000000 ) ) ;
#65 =( NAMED_UNIT ( * ) PLANE_ANGLE_UNIT ( ) SI_UNIT ( $, .RADIAN. ) );
#66 = DATE_AND_TIME ( #200, #83 ) ;
#67 = VERTEX_POINT ( 'NONE', #182 ) ;
#68 = DATE_AND_TIME ( #45, #75 ) ;
#69 = CIRCLE ( 'NONE', #199, 3.649999999999999911 ) ;
#70 = PRODUCT ( '342162', '342162', '', ( #233 ) ) ;
#71 = COORDINATED_UNIVERSAL_TIME_OFFSET ( 1, 0, .AHEAD. ) ;
#72 = COORDINATED_UNIVERSAL_TIME_OFFSET ( 1, 0, .AHEAD. ) ;
#73 = PRODUCT_RELATED_PRODUCT_CATEGORY ( 'detail', '', ( #70 ) ) ;
#74 = EDGE_LOOP ( 'NONE', ( #240 ) ) ;
#75 = LOCAL_TIME ( 15, 33, 17.00000000000000000, #140 ) ;
#76 = CALENDAR_DATE ( 2023, 28, 9 ) ;
#77 = EDGE_LOOP ( 'NONE', ( #33 ) ) ;
#78 = PLANE ( 'NONE',  #19 ) ;
#79 = CARTESIAN_POINT ( 'NONE',  ( -1.389645219916510978E-30, 4.874219293651035583E-32, -3.980102097228896259E-16 ) ) ;
#80 = EDGE_CURVE ( 'NONE', #27, #27, #15, .T. ) ;
#81 = CARTESIAN_POINT ( 'NONE',  ( 3.526396152231565067E-13, 1.799711739194212982E-32, 101.0000000000000000 ) ) ;
#82 = EDGE_LOOP ( 'NONE', ( #222 ) ) ;
#83 = LOCAL_TIME ( 15, 33, 17.00000000000000000, #90 ) ;
#84 = AXIS2_PLACEMENT_3D ( 'NONE', #20, #101, #194 ) ;
#85 = DIRECTION ( 'NONE',  ( -4.275831445896958607E-31, -1.000000000000000000, -1.224646799147353207E-16 ) ) ;
#86 = EDGE_CURVE ( 'NONE', #7, #7, #166, .T. ) ;
#87 = APPLICATION_PROTOCOL_DEFINITION ( 'international standard', 'config_control_design', 1994, #242 ) ;
#88 = CARTESIAN_POINT ( 'NONE',  ( 1.396592535537250976E-15, 3.649999999999999911, 0.3999999999999993006 ) ) ;
#89 = AXIS2_PLACEMENT_3D ( 'NONE', #21, #174, #38 ) ;
#90 = COORDINATED_UNIVERSAL_TIME_OFFSET ( 1, 0, .AHEAD. ) ;
#91 = CARTESIAN_POINT ( 'NONE',  ( 3.505447264198505131E-13, 2.999999999999990674, 100.3999999999999915 ) ) ;
#92 = ADVANCED_FACE ( 'NONE', ( #177, #198 ), #212, .T. ) ;
#93 = VERTEX_POINT ( 'NONE', #91 ) ;
#94 = PERSON_AND_ORGANIZATION ( #165, #107 ) ;
#95 = APPROVAL ( #125, 'UNSPECIFIED' ) ;
#96 = DATE_AND_TIME ( #76, #53 ) ;
#97 = DATE_TIME_ROLE ( 'classification_date' ) ;
#98 = AXIS2_PLACEMENT_3D ( 'NONE', #81, #103, #57 ) ;
#99 = EDGE_LOOP ( 'NONE', ( #239 ) ) ;
#100 = EDGE_LOOP ( 'NONE', ( #43 ) ) ;
#101 = DIRECTION ( 'NONE',  ( -3.491481338843133355E-15, 1.224646799147353207E-16, -1.000000000000000000 ) ) ;
#102 = FACE_BOUND ( 'NONE', #99, .T. ) ;
#103 = DIRECTION ( 'NONE',  ( -3.491481338843133355E-15, 1.224646799147353207E-16, -1.000000000000000000 ) ) ;
#104 = FACE_OUTER_BOUND ( 'NONE', #190, .T. ) ;
#105 = APPROVAL_PERSON_ORGANIZATION ( #16, #17, #238 ) ;
#106 = DIRECTION ( 'NONE',  ( 0.000000000000000000, 1.000000000000000000, 0.000000000000000000 ) ) ;
#107 = ORGANIZATION ( 'UNSPECIFIED', 'UNSPECIFIED', '' ) ;
#108 = PERSON_AND_ORGANIZATION_ROLE ( 'design_owner' ) ;
#109 = AXIS2_PLACEMENT_3D ( 'NONE', #118, #227, #156 ) ;
#110 = EDGE_LOOP ( 'NONE', ( #130 ) ) ;
#111 = CALENDAR_DATE ( 2023, 28, 9 ) ;
#112 = APPROVAL_STATUS ( 'not_yet_approved' ) ;
#113 = EDGE_CURVE ( 'NONE', #28, #28, #69, .T. ) ;
#114 = CARTESIAN_POINT ( 'NONE',  ( 3.505447264198505131E-13, -1.229545386343942402E-14, 100.3999999999999915 ) ) ;
#115 = ADVANCED_FACE ( 'NONE', ( #24, #39 ), #197, .T. ) ;
#116 = DIRECTION ( 'NONE',  ( -3.491481338843133355E-15, 1.224646799147353207E-16, -1.000000000000000000 ) ) ;
#117 = CC_DESIGN_APPROVAL ( #46, ( #209 ) ) ;
#118 = CARTESIAN_POINT ( 'NONE',  ( 5.979452641865087669E-14, -2.097309659670004709E-15, 17.12583302491978543 ) ) ;
#119 = DIRECTION ( 'NONE',  ( 0.000000000000000000, 1.000000000000000000, 0.000000000000000000 ) ) ;
#120 = FACE_OUTER_BOUND ( 'NONE', #77, .T. ) ;
#121 = PERSON_AND_ORGANIZATION_ROLE ( 'creator' ) ;
#122 = EDGE_CURVE ( 'NONE', #67, #67, #154, .T. ) ;
#123 = CLOSED_SHELL ( 'NONE', ( #92, #169, #42, #142 ) ) ;
#124 = CC_DESIGN_APPROVAL ( #17, ( #141 ) ) ;
#125 = APPROVAL_STATUS ( 'not_yet_approved' ) ;
#126 = DIRECTION ( 'NONE',  ( 0.000000000000000000, 1.000000000000000000, 0.000000000000000000 ) ) ;
#127 = MANIFOLD_SOLID_BREP ( 'Corps-Déplacer/Copier1[2]', #123 ) ;
#128 = ORIENTED_EDGE ( 'NONE', *, *, #176, .F. ) ;
#129 = AXIS2_PLACEMENT_3D ( 'NONE', #63, #3, #85 ) ;
#130 = ORIENTED_EDGE ( 'NONE', *, *, #80, .F. ) ;
#131 = APPROVAL_DATE_TIME ( #149, #17 ) ;
#132 = SHAPE_DEFINITION_REPRESENTATION ( #219, #147 ) ;
#133 = ORIENTED_EDGE ( 'NONE', *, *, #8, .T. ) ;
#134 = CARTESIAN_POINT ( 'NONE',  ( 5.586370142149013368E-14, -1.959434878635765131E-15, 16.00000000000000000 ) ) ;
#135 = DIRECTION ( 'NONE',  ( 4.221216316465174484E-31, 1.000000000000000000, 1.188166764367676095E-16 ) ) ;
#136 = DIRECTION ( 'NONE',  ( 0.000000000000000000, 1.000000000000000000, 0.000000000000000000 ) ) ;
#137 = LOCAL_TIME ( 15, 33, 17.00000000000000000, #171 ) ;
#138 = FACE_OUTER_BOUND ( 'NONE', #4, .T. ) ;
#139 = FACE_OUTER_BOUND ( 'NONE', #206, .T. ) ;
#140 = COORDINATED_UNIVERSAL_TIME_OFFSET ( 1, 0, .AHEAD. ) ;
#141 = SECURITY_CLASSIFICATION ( '', '', #208 ) ;
#142 = ADVANCED_FACE ( 'NONE', ( #138, #102 ), #36, .T. ) ;
#143 = CARTESIAN_POINT ( 'NONE',  ( 3.526396152231565067E-13, -1.236893267138826732E-14, 101.0000000000000000 ) ) ;
#144 = VERTEX_POINT ( 'NONE', #162 ) ;
#145 = CIRCLE ( 'NONE', #220, 2.400000000000003464 ) ;
#146 = DIRECTION ( 'NONE',  ( -4.275831445896958607E-31, -1.000000000000000000, -1.224646799147353207E-16 ) ) ;
#147 = ADVANCED_BREP_SHAPE_REPRESENTATION ( '342162', ( #47, #127, #216 ), #187 ) ;
#148 = APPROVAL_ROLE ( '' ) ;
#149 = DATE_AND_TIME ( #111, #10 ) ;
#150 = PERSON_AND_ORGANIZATION_ROLE ( 'classification_officer' ) ;
#151 = AXIS2_PLACEMENT_3D ( 'NONE', #79, #5, #180 ) ;
#152 = EDGE_LOOP ( 'NONE', ( #55 ) ) ;
#153 = CC_DESIGN_DATE_AND_TIME_ASSIGNMENT ( #205, #97, ( #141 ) ) ;
#154 = CIRCLE ( 'NONE', #232, 3.650000000000000355 ) ;
#155 = CARTESIAN_POINT ( 'NONE',  ( 5.586370142149013368E-14, 2.737061603357887124E-32, 16.00000000000000000 ) ) ;
#156 = DIRECTION ( 'NONE',  ( 0.000000000000000000, 1.000000000000000000, 0.000000000000000000 ) ) ;
#157 = PLANE ( 'NONE',  #98 ) ;
#158 = FACE_OUTER_BOUND ( 'NONE', #82, .T. ) ;
#159 = AXIS2_PLACEMENT_3D ( 'NONE', #58, #160, #230 ) ;
#160 = DIRECTION ( 'NONE',  ( -3.491481338843133355E-15, 1.224646799147353207E-16, -1.000000000000000000 ) ) ;
#161 = DIRECTION ( 'NONE',  ( 0.000000000000000000, 1.000000000000000000, 0.000000000000000000 ) ) ;
#162 = CARTESIAN_POINT ( 'NONE',  ( 3.526396152231565067E-13, 2.399999999999990585, 101.0000000000000000 ) ) ;
#163 = CARTESIAN_POINT ( 'NONE',  ( 0.000000000000000000, 3.249999999999998668, 0.000000000000000000 ) ) ;
#164 = DIRECTION ( 'NONE',  ( 0.000000000000000000, 0.000000000000000000, 1.000000000000000000 ) ) ;
#165 = PERSON ( 'UNSPECIFIED', 'UNSPECIFIED', 'UNSPECIFIED', ('UNSPECIFIED'), ('UNSPECIFIED'), ('UNSPECIFIED') ) ;
#166 = CIRCLE ( 'NONE', #151, 3.249999999999998668 ) ;
#167 = PERSON_AND_ORGANIZATION ( #165, #107 ) ;
#168 = PERSON_AND_ORGANIZATION ( #165, #107 ) ;
#169 = ADVANCED_FACE ( 'NONE', ( #228 ), #62, .T. ) ;
#170 = EDGE_LOOP ( 'NONE', ( #35 ) ) ;
#171 = COORDINATED_UNIVERSAL_TIME_OFFSET ( 1, 0, .AHEAD. ) ;
#172 = CIRCLE ( 'NONE', #193, 3.000000000000002665 ) ;
#173 = ORIENTED_EDGE ( 'NONE', *, *, #122, .T. ) ;
#174 = DIRECTION ( 'NONE',  ( -3.491481338843133355E-15, 1.224646799147353207E-16, -1.000000000000000000 ) ) ;
#175 = DIRECTION ( 'NONE',  ( -3.491481338843133355E-15, 1.224646799147353207E-16, -1.000000000000000000 ) ) ;
#176 = EDGE_CURVE ( 'NONE', #31, #31, #207, .T. ) ;
#177 = FACE_OUTER_BOUND ( 'NONE', #100, .T. ) ;
#178 = DIRECTION ( 'NONE',  ( 4.275831445896959482E-31, 1.000000000000000000, 1.224646799147353207E-16 ) ) ;
#179 = AXIS2_PLACEMENT_3D ( 'NONE', #134, #175, #119 ) ;
#180 = DIRECTION ( 'NONE',  ( 4.275831445896958607E-31, 1.000000000000000000, 1.224646799147353207E-16 ) ) ;
#181 = ADVANCED_FACE ( 'NONE', ( #196, #104 ), #184, .T. ) ;
#182 = CARTESIAN_POINT ( 'NONE',  ( 5.586370142149013368E-14, 3.649999999999998135, 16.00000000000000000 ) ) ;
#183 = PERSON_AND_ORGANIZATION ( #165, #107 ) ;
#184 = CONICAL_SURFACE ( 'NONE', #159, 3.650000000000000355, 0.5235987755983002589 ) ;
#185 = PERSON_AND_ORGANIZATION ( #165, #107 ) ;
#186 = APPROVAL_DATE_TIME ( #68, #95 ) ;
#187 =( GEOMETRIC_REPRESENTATION_CONTEXT ( 3 ) GLOBAL_UNCERTAINTY_ASSIGNED_CONTEXT ( ( #29 ) ) GLOBAL_UNIT_ASSIGNED_CONTEXT ( ( #32, #65, #6 ) ) REPRESENTATION_CONTEXT ( 'NONE', 'WORKASPACE' ) );
#188 = EDGE_LOOP ( 'NONE', ( #128 ) ) ;
#189 = CALENDAR_DATE ( 2023, 28, 9 ) ;
#190 = EDGE_LOOP ( 'NONE', ( #211 ) ) ;
#191 = CC_DESIGN_SECURITY_CLASSIFICATION ( #141, ( #209 ) ) ;
#192 = DIRECTION ( 'NONE',  ( -3.491481338843133355E-15, 1.224646799147353207E-16, -1.000000000000000000 ) ) ;
#193 = AXIS2_PLACEMENT_3D ( 'NONE', #114, #192, #136 ) ;
#194 = DIRECTION ( 'NONE',  ( 4.275831445896958607E-31, 1.000000000000000000, 1.224646799147353207E-16 ) ) ;
#195 = CC_DESIGN_DATE_AND_TIME_ASSIGNMENT ( #66, #215, ( #203 ) ) ;
#196 = FACE_BOUND ( 'NONE', #152, .T. ) ;
#197 = CYLINDRICAL_SURFACE ( 'NONE', #84, 2.999999999999996447 ) ;
#198 = FACE_OUTER_BOUND ( 'NONE', #170, .T. ) ;
#199 = AXIS2_PLACEMENT_3D ( 'NONE', #18, #41, #135 ) ;
#200 = CALENDAR_DATE ( 2023, 28, 9 ) ;
#201 = APPLICATION_PROTOCOL_DEFINITION ( 'international standard', 'config_control_design', 1994, #22 ) ;
#202 = FACE_BOUND ( 'NONE', #51, .T. ) ;
#203 = PRODUCT_DEFINITION ( 'UNKNOWN', '', #209, #235 ) ;
#204 = CARTESIAN_POINT ( 'NONE',  ( 5.979452641865087669E-14, 2.999999999999988010, 17.12583302491978543 ) ) ;
#205 = DATE_AND_TIME ( #189, #137 ) ;
#206 = EDGE_LOOP ( 'NONE', ( #173 ) ) ;
#207 = CIRCLE ( 'NONE', #109, 2.999999999999990230 ) ;
#208 = SECURITY_CLASSIFICATION_LEVEL ( 'unclassified' ) ;
#209 = PRODUCT_DEFINITION_FORMATION_WITH_SPECIFIED_SOURCE ( 'ANY', '', #70, .NOT_KNOWN. ) ;
#210 = DIRECTION ( 'NONE',  ( 3.491481338843133355E-15, -1.224646799147353207E-16, 1.000000000000000000 ) ) ;
#211 = ORIENTED_EDGE ( 'NONE', *, *, #122, .F. ) ;
#212 = CYLINDRICAL_SURFACE ( 'NONE', #56, 3.650000000000000355 ) ;
#213 = DIRECTION ( 'NONE',  ( -4.275831445896958607E-31, -1.000000000000000000, -1.224646799147353207E-16 ) ) ;
#214 = PLANE ( 'NONE',  #89 ) ;
#215 = DATE_TIME_ROLE ( 'creation_date' ) ;
#216 = AXIS2_PLACEMENT_3D ( 'NONE', #30, #164, #64 ) ;
#217 = FACE_OUTER_BOUND ( 'NONE', #74, .T. ) ;
#218 = CC_DESIGN_PERSON_AND_ORGANIZATION_ASSIGNMENT ( #168, #237, ( #209 ) ) ;
#219 = PRODUCT_DEFINITION_SHAPE ( 'NONE', 'NONE',  #203 ) ;
#220 = AXIS2_PLACEMENT_3D ( 'NONE', #11, #236, #161 ) ;
#221 = APPROVAL_DATE_TIME ( #96, #46 ) ;
#222 = ORIENTED_EDGE ( 'NONE', *, *, #226, .F. ) ;
#223 = ADVANCED_FACE ( 'NONE', ( #139 ), #78, .F. ) ;
#224 = EDGE_LOOP ( 'NONE', ( #133 ) ) ;
#225 = AXIS2_PLACEMENT_3D ( 'NONE', #143, #50, #126 ) ;
#226 = EDGE_CURVE ( 'NONE', #144, #144, #145, .T. ) ;
#227 = DIRECTION ( 'NONE',  ( -3.491481338843133355E-15, 1.224646799147353207E-16, -1.000000000000000000 ) ) ;
#228 = FACE_OUTER_BOUND ( 'NONE', #110, .T. ) ;
#229 = CARTESIAN_POINT ( 'NONE',  ( 5.586370142149013368E-14, -1.959434878635765131E-15, 16.00000000000000000 ) ) ;
#230 = DIRECTION ( 'NONE',  ( 0.000000000000000000, 1.000000000000000000, 0.000000000000000000 ) ) ;
#231 = CARTESIAN_POINT ( 'NONE',  ( 5.586370142149013368E-14, 3.649999999999998135, 16.00000000000000000 ) ) ;
#232 = AXIS2_PLACEMENT_3D ( 'NONE', #229, #116, #106 ) ;
#233 = MECHANICAL_CONTEXT ( 'NONE', #242, 'mechanical' ) ;
#234 = ADVANCED_FACE ( 'NONE', ( #217, #202 ), #40, .T. ) ;
#235 = DESIGN_CONTEXT ( 'detailed design', #22, 'design' ) ;
#236 = DIRECTION ( 'NONE',  ( -3.491481338843133355E-15, 1.224646799147353207E-16, -1.000000000000000000 ) ) ;
#237 = PERSON_AND_ORGANIZATION_ROLE ( 'creator' ) ;
#238 = APPROVAL_ROLE ( '' ) ;
#239 = ORIENTED_EDGE ( 'NONE', *, *, #86, .F. ) ;
#240 = ORIENTED_EDGE ( 'NONE', *, *, #8, .F. ) ;
#241 = APPROVAL_PERSON_ORGANIZATION ( #48, #46, #148 ) ;
#242 = APPLICATION_CONTEXT ( 'configuration controlled 3d designs of mechanical parts and assemblies' ) ;
#243 = ORIENTED_EDGE ( 'NONE', *, *, #226, .T. ) ;
ENDSEC;
END-ISO-10303-21;
