ISO-10303-21;
HEADER;
FILE_DESCRIPTION (( 'STEP AP203' ),
    '1' );
FILE_NAME ('342152.step',
    '2023-09-28T13:33:17',
    ( '' ),
    ( '' ),
    'SwSTEP 2.0',
    'SolidWorks 2022',
    '' );
FILE_SCHEMA (( 'CONFIG_CONTROL_DESIGN' ));
ENDSEC;

DATA;
#1 = DIRECTION ( 'NONE',  ( 0.000000000000000000, 1.000000000000000000, 0.000000000000000000 ) ) ;
#2 = AXIS2_PLACEMENT_3D ( 'NONE', #237, #64, #177 ) ;
#3 = CARTESIAN_POINT ( 'NONE',  ( 5.586370142149013368E-14, 2.699567608791340957E-32, 16.00000000000000000 ) ) ;
#4 = MANIFOLD_SOLID_BREP ( 'Corps-Déplacer/Copier1[2]', #198 ) ;
#5 = PERSON ( 'UNSPECIFIED', 'UNSPECIFIED', 'UNSPECIFIED', ('UNSPECIFIED'), ('UNSPECIFIED'), ('UNSPECIFIED') ) ;
#6 = ORIENTED_EDGE ( 'NONE', *, *, #143, .F. ) ;
#7 = DATE_AND_TIME ( #171, #108 ) ;
#8 = APPROVAL ( #217, 'UNSPECIFIED' ) ;
#9 = CONICAL_SURFACE ( 'NONE', #226, 3.600000000000000533, 0.5235987755983007030 ) ;
#10 = CC_DESIGN_PERSON_AND_ORGANIZATION_ASSIGNMENT ( #32, #111, ( #170 ) ) ;
#11 = CARTESIAN_POINT ( 'NONE',  ( 3.505447264198505131E-13, -1.229545386343942402E-14, 100.3999999999999915 ) ) ;
#12 =( LENGTH_UNIT ( ) NAMED_UNIT ( * ) SI_UNIT ( .MILLI., .METRE. ) );
#13 = COORDINATED_UNIVERSAL_TIME_OFFSET ( 1, 0, .AHEAD. ) ;
#14 = CARTESIAN_POINT ( 'NONE',  ( 5.586370142149013368E-14, -1.959434878635765131E-15, 16.00000000000000000 ) ) ;
#15 = CC_DESIGN_APPROVAL ( #45, ( #86 ) ) ;
#16 = DATE_TIME_ROLE ( 'creation_date' ) ;
#17 = CARTESIAN_POINT ( 'NONE',  ( 3.505447264198505131E-13, 2.999999999999990674, 100.3999999999999915 ) ) ;
#18 = PERSON_AND_ORGANIZATION_ROLE ( 'design_supplier' ) ;
#19 = DIRECTION ( 'NONE',  ( 0.000000000000000000, 1.000000000000000000, 0.000000000000000000 ) ) ;
#20 = PERSON_AND_ORGANIZATION ( #5, #215 ) ;
#21 = CIRCLE ( 'NONE', #113, 2.999999999999990230 ) ;
#22 = CARTESIAN_POINT ( 'NONE',  ( 5.949215526502313888E-14, -2.086703907282755450E-15, 17.03923048454133848 ) ) ;
#23 = EDGE_LOOP ( 'NONE', ( #151 ) ) ;
#24 = FACE_OUTER_BOUND ( 'NONE', #94, .T. ) ;
#25 = AXIS2_PLACEMENT_3D ( 'NONE', #3, #134, #70 ) ;
#26 = EDGE_LOOP ( 'NONE', ( #40 ) ) ;
#27 = PERSON_AND_ORGANIZATION ( #5, #215 ) ;
#28 = CYLINDRICAL_SURFACE ( 'NONE', #206, 3.600000000000000089 ) ;
#29 = ADVANCED_FACE ( 'NONE', ( #107, #81 ), #28, .T. ) ;
#30 = AXIS2_PLACEMENT_3D ( 'NONE', #162, #146, #185 ) ;
#31 = DIRECTION ( 'NONE',  ( 4.275831445896958607E-31, 1.000000000000000000, 1.224646799147353207E-16 ) ) ;
#32 = PERSON_AND_ORGANIZATION ( #5, #215 ) ;
#33 = PLANE ( 'NONE',  #157 ) ;
#34 = CARTESIAN_POINT ( 'NONE',  ( 5.586370142149013368E-14, 3.599999999999998312, 16.00000000000000000 ) ) ;
#35 = SECURITY_CLASSIFICATION_LEVEL ( 'unclassified' ) ;
#36 = CARTESIAN_POINT ( 'NONE',  ( 5.586370142149013368E-14, -1.959434878635765131E-15, 16.00000000000000000 ) ) ;
#37 = DIRECTION ( 'NONE',  ( -3.491481338843133355E-15, 1.224646799147353207E-16, -1.000000000000000000 ) ) ;
#38 = CARTESIAN_POINT ( 'NONE',  ( 5.586370142149013368E-14, -1.959434878635765131E-15, 16.00000000000000000 ) ) ;
#39 = DIRECTION ( 'NONE',  ( 0.000000000000000000, 1.000000000000000000, 0.000000000000000000 ) ) ;
#40 = ORIENTED_EDGE ( 'NONE', *, *, #193, .T. ) ;
#41 =( GEOMETRIC_REPRESENTATION_CONTEXT ( 3 ) GLOBAL_UNCERTAINTY_ASSIGNED_CONTEXT ( ( #225 ) ) GLOBAL_UNIT_ASSIGNED_CONTEXT ( ( #12, #156, #181 ) ) REPRESENTATION_CONTEXT ( 'NONE', 'WORKASPACE' ) );
#42 = EDGE_LOOP ( 'NONE', ( #102 ) ) ;
#43 = CALENDAR_DATE ( 2023, 28, 9 ) ;
#44 = AXIS2_PLACEMENT_3D ( 'NONE', #144, #37, #96 ) ;
#45 = APPROVAL ( #63, 'UNSPECIFIED' ) ;
#46 = AXIS2_PLACEMENT_3D ( 'NONE', #11, #127, #125 ) ;
#47 = EDGE_CURVE ( 'NONE', #213, #213, #183, .T. ) ;
#48 = DIRECTION ( 'NONE',  ( 0.000000000000000000, 1.000000000000000000, 0.000000000000000000 ) ) ;
#49 = CC_DESIGN_SECURITY_CLASSIFICATION ( #86, ( #153 ) ) ;
#50 = APPROVAL_ROLE ( '' ) ;
#51 = APPLICATION_CONTEXT ( 'configuration controlled 3d designs of mechanical parts and assemblies' ) ;
#52 = COORDINATED_UNIVERSAL_TIME_OFFSET ( 1, 0, .AHEAD. ) ;
#53 = DIRECTION ( 'NONE',  ( -3.491481338843133355E-15, 1.224646799147353207E-16, -1.000000000000000000 ) ) ;
#54 = ORIENTED_EDGE ( 'NONE', *, *, #233, .F. ) ;
#55 = PLANE ( 'NONE',  #25 ) ;
#56 = ADVANCED_FACE ( 'NONE', ( #176 ), #33, .T. ) ;
#57 = ORIENTED_EDGE ( 'NONE', *, *, #106, .F. ) ;
#58 = PRODUCT_DEFINITION ( 'UNKNOWN', '', #153, #235 ) ;
#59 = CIRCLE ( 'NONE', #2, 3.600000000000000089 ) ;
#60 = APPROVAL_STATUS ( 'not_yet_approved' ) ;
#61 = AXIS2_PLACEMENT_3D ( 'NONE', #202, #131, #149 ) ;
#62 = LOCAL_TIME ( 15, 33, 17.00000000000000000, #201 ) ;
#63 = APPROVAL_STATUS ( 'not_yet_approved' ) ;
#64 = DIRECTION ( 'NONE',  ( -3.491481338843133355E-15, 1.224646799147353207E-16, -1.000000000000000000 ) ) ;
#65 = FACE_OUTER_BOUND ( 'NONE', #97, .T. ) ;
#66 = COORDINATED_UNIVERSAL_TIME_OFFSET ( 1, 0, .AHEAD. ) ;
#67 = DIRECTION ( 'NONE',  ( 0.000000000000000000, 1.000000000000000000, 0.000000000000000000 ) ) ;
#68 = ORIENTED_EDGE ( 'NONE', *, *, #239, .F. ) ;
#69 = ORIENTED_EDGE ( 'NONE', *, *, #47, .T. ) ;
#70 = DIRECTION ( 'NONE',  ( -4.275831445896958607E-31, -1.000000000000000000, -1.224646799147353207E-16 ) ) ;
#71 = CC_DESIGN_APPROVAL ( #8, ( #153 ) ) ;
#72 = ADVANCED_FACE ( 'NONE', ( #129, #200 ), #9, .T. ) ;
#73 = CYLINDRICAL_SURFACE ( 'NONE', #61, 2.999999999999996447 ) ;
#74 = ADVANCED_BREP_SHAPE_REPRESENTATION ( '342152', ( #165, #4, #172 ), #41 ) ;
#75 = DIRECTION ( 'NONE',  ( -3.491481338843133355E-15, 1.224646799147353207E-16, -1.000000000000000000 ) ) ;
#76 = ORIENTED_EDGE ( 'NONE', *, *, #47, .F. ) ;
#77 = CC_DESIGN_PERSON_AND_ORGANIZATION_ASSIGNMENT ( #27, #155, ( #58 ) ) ;
#78 = CARTESIAN_POINT ( 'NONE',  ( -1.368266062687026088E-30, 4.799231304517942156E-32, -3.918869757271528488E-16 ) ) ;
#79 = CIRCLE ( 'NONE', #199, 3.199999999999998401 ) ;
#80 = DATE_AND_TIME ( #43, #142 ) ;
#81 = FACE_OUTER_BOUND ( 'NONE', #209, .T. ) ;
#82 = CIRCLE ( 'NONE', #148, 2.400000000000003464 ) ;
#83 = ADVANCED_FACE ( 'NONE', ( #65 ), #194, .F. ) ;
#84 = APPROVAL_DATE_TIME ( #7, #137 ) ;
#85 = VERTEX_POINT ( 'NONE', #140 ) ;
#86 = SECURITY_CLASSIFICATION ( '', '', #35 ) ;
#87 = PERSON_AND_ORGANIZATION_ROLE ( 'classification_officer' ) ;
#88 = CARTESIAN_POINT ( 'NONE',  ( 5.949215526502313888E-14, 2.999999999999988010, 17.03923048454133848 ) ) ;
#89 = DATE_TIME_ROLE ( 'classification_date' ) ;
#90 = APPLICATION_CONTEXT ( 'configuration controlled 3d designs of mechanical parts and assemblies' ) ;
#91 = CARTESIAN_POINT ( 'NONE',  ( 1.396592535537250187E-15, 3.600000000000000089, 0.3999999999999990785 ) ) ;
#92 = APPROVAL_ROLE ( '' ) ;
#93 = CC_DESIGN_DATE_AND_TIME_ASSIGNMENT ( #141, #89, ( #86 ) ) ;
#94 = EDGE_LOOP ( 'NONE', ( #69 ) ) ;
#95 = CIRCLE ( 'NONE', #220, 3.600000000000000533 ) ;
#96 = DIRECTION ( 'NONE',  ( 0.000000000000000000, 1.000000000000000000, 0.000000000000000000 ) ) ;
#97 = EDGE_LOOP ( 'NONE', ( #186 ) ) ;
#98 = CLOSED_SHELL ( 'NONE', ( #83, #72, #167, #169, #188 ) ) ;
#99 = AXIS2_PLACEMENT_3D ( 'NONE', #223, #242, #150 ) ;
#100 = CC_DESIGN_DATE_AND_TIME_ASSIGNMENT ( #80, #16, ( #58 ) ) ;
#101 = FACE_OUTER_BOUND ( 'NONE', #147, .T. ) ;
#102 = ORIENTED_EDGE ( 'NONE', *, *, #233, .T. ) ;
#103 = DIRECTION ( 'NONE',  ( 0.000000000000000000, 0.000000000000000000, 1.000000000000000000 ) ) ;
#104 = CARTESIAN_POINT ( 'NONE',  ( 0.000000000000000000, 0.000000000000000000, 0.000000000000000000 ) ) ;
#105 = APPROVAL_PERSON_ORGANIZATION ( #173, #137, #190 ) ;
#106 = EDGE_CURVE ( 'NONE', #218, #218, #21, .T. ) ;
#107 = FACE_OUTER_BOUND ( 'NONE', #145, .T. ) ;
#108 = LOCAL_TIME ( 15, 33, 17.00000000000000000, #13 ) ;
#109 = ADVANCED_FACE ( 'NONE', ( #101 ), #55, .T. ) ;
#110 = VERTEX_POINT ( 'NONE', #128 ) ;
#111 = PERSON_AND_ORGANIZATION_ROLE ( 'design_owner' ) ;
#112 = CARTESIAN_POINT ( 'NONE',  ( 5.586370142149013368E-14, 3.599999999999998312, 16.00000000000000000 ) ) ;
#113 = AXIS2_PLACEMENT_3D ( 'NONE', #22, #75, #1 ) ;
#114 = DIRECTION ( 'NONE',  ( -3.491481338843133355E-15, 1.224646799147353207E-16, -1.000000000000000000 ) ) ;
#115 = CARTESIAN_POINT ( 'NONE',  ( 3.526396152231565067E-13, -1.236893267138826732E-14, 101.0000000000000000 ) ) ;
#116 = APPROVAL_PERSON_ORGANIZATION ( #197, #45, #50 ) ;
#117 = ORIENTED_EDGE ( 'NONE', *, *, #193, .F. ) ;
#118 = AXIS2_PLACEMENT_3D ( 'NONE', #168, #119, #189 ) ;
#119 = DIRECTION ( 'NONE',  ( -3.491481338843133355E-15, 1.224646799147353207E-16, -1.000000000000000000 ) ) ;
#120 = EDGE_LOOP ( 'NONE', ( #166 ) ) ;
#121 = EDGE_LOOP ( 'NONE', ( #57 ) ) ;
#122 = LOCAL_TIME ( 15, 33, 17.00000000000000000, #52 ) ;
#123 = ADVANCED_FACE ( 'NONE', ( #203, #208 ), #234, .T. ) ;
#124 = CARTESIAN_POINT ( 'NONE',  ( 0.000000000000000000, 0.000000000000000000, 0.000000000000000000 ) ) ;
#125 = DIRECTION ( 'NONE',  ( 0.000000000000000000, 1.000000000000000000, 0.000000000000000000 ) ) ;
#126 = DIRECTION ( 'NONE',  ( -3.491481338843133355E-15, 1.224646799147353207E-16, -1.000000000000000000 ) ) ;
#127 = DIRECTION ( 'NONE',  ( -3.491481338843133355E-15, 1.224646799147353207E-16, -1.000000000000000000 ) ) ;
#128 = CARTESIAN_POINT ( 'NONE',  ( 0.000000000000000000, 3.199999999999998401, 0.000000000000000000 ) ) ;
#129 = FACE_BOUND ( 'NONE', #23, .T. ) ;
#130 = CC_DESIGN_APPROVAL ( #137, ( #58 ) ) ;
#131 = DIRECTION ( 'NONE',  ( -3.491481338843133355E-15, 1.224646799147353207E-16, -1.000000000000000000 ) ) ;
#132 = CALENDAR_DATE ( 2023, 28, 9 ) ;
#133 = EDGE_CURVE ( 'NONE', #85, #85, #82, .T. ) ;
#134 = DIRECTION ( 'NONE',  ( 3.491481338843133355E-15, -1.224646799147353207E-16, 1.000000000000000000 ) ) ;
#135 = EDGE_LOOP ( 'NONE', ( #117 ) ) ;
#136 = DIRECTION ( 'NONE',  ( 4.275831445896958607E-31, 1.000000000000000000, 1.224646799147352961E-16 ) ) ;
#137 = APPROVAL ( #60, 'UNSPECIFIED' ) ;
#138 = CONICAL_SURFACE ( 'NONE', #44, 2.400000000000003464, 0.7853981633974335130 ) ;
#139 = CARTESIAN_POINT ( 'NONE',  ( -6.841330313435130442E-31, 2.399615652258971078E-32, -1.959434878635764244E-16 ) ) ;
#140 = CARTESIAN_POINT ( 'NONE',  ( 3.526396152231565067E-13, 2.399999999999990585, 101.0000000000000000 ) ) ;
#141 = DATE_AND_TIME ( #132, #122 ) ;
#142 = LOCAL_TIME ( 15, 33, 17.00000000000000000, #212 ) ;
#143 = EDGE_CURVE ( 'NONE', #179, #179, #95, .T. ) ;
#144 = CARTESIAN_POINT ( 'NONE',  ( 3.526396152231565067E-13, -1.236893267138826732E-14, 101.0000000000000000 ) ) ;
#145 = EDGE_LOOP ( 'NONE', ( #224 ) ) ;
#146 = DIRECTION ( 'NONE',  ( 3.491481338843133355E-15, -1.224646799147353207E-16, 1.000000000000000000 ) ) ;
#147 = EDGE_LOOP ( 'NONE', ( #6 ) ) ;
#148 = AXIS2_PLACEMENT_3D ( 'NONE', #115, #228, #39 ) ;
#149 = DIRECTION ( 'NONE',  ( 4.275831445896958607E-31, 1.000000000000000000, 1.224646799147353207E-16 ) ) ;
#150 = DIRECTION ( 'NONE',  ( -4.275831445896958607E-31, -1.000000000000000000, -1.224646799147353207E-16 ) ) ;
#151 = ORIENTED_EDGE ( 'NONE', *, *, #106, .T. ) ;
#152 = DIRECTION ( 'NONE',  ( -3.491481338843133355E-15, 1.224646799147353207E-16, -1.000000000000000000 ) ) ;
#153 = PRODUCT_DEFINITION_FORMATION_WITH_SPECIFIED_SOURCE ( 'ANY', '', #170, .NOT_KNOWN. ) ;
#154 = CC_DESIGN_PERSON_AND_ORGANIZATION_ASSIGNMENT ( #178, #163, ( #153 ) ) ;
#155 = PERSON_AND_ORGANIZATION_ROLE ( 'creator' ) ;
#156 =( NAMED_UNIT ( * ) PLANE_ANGLE_UNIT ( ) SI_UNIT ( $, .RADIAN. ) );
#157 = AXIS2_PLACEMENT_3D ( 'NONE', #139, #159, #219 ) ;
#158 = SHAPE_DEFINITION_REPRESENTATION ( #214, #74 ) ;
#159 = DIRECTION ( 'NONE',  ( -3.491481338843133355E-15, 1.224646799147353207E-16, -1.000000000000000000 ) ) ;
#160 = CALENDAR_DATE ( 2023, 28, 9 ) ;
#161 = VERTEX_POINT ( 'NONE', #112 ) ;
#162 = CARTESIAN_POINT ( 'NONE',  ( 5.586370142149013368E-14, 2.699567608791340957E-32, 16.00000000000000000 ) ) ;
#163 = PERSON_AND_ORGANIZATION_ROLE ( 'creator' ) ;
#164 = FACE_OUTER_BOUND ( 'NONE', #230, .T. ) ;
#165 = MANIFOLD_SOLID_BREP ( 'Corps-Déplacer/Copier1[1]', #98 ) ;
#166 = ORIENTED_EDGE ( 'NONE', *, *, #133, .T. ) ;
#167 = ADVANCED_FACE ( 'NONE', ( #187, #24 ), #73, .T. ) ;
#168 = CARTESIAN_POINT ( 'NONE',  ( 3.526396152231565067E-13, 1.799711739194212982E-32, 101.0000000000000000 ) ) ;
#169 = ADVANCED_FACE ( 'NONE', ( #180, #227 ), #138, .T. ) ;
#170 = PRODUCT ( '342152', '342152', '', ( #216 ) ) ;
#171 = CALENDAR_DATE ( 2023, 28, 9 ) ;
#172 = AXIS2_PLACEMENT_3D ( 'NONE', #124, #103, #229 ) ;
#173 = PERSON_AND_ORGANIZATION ( #5, #215 ) ;
#174 = APPROVAL_PERSON_ORGANIZATION ( #222, #8, #92 ) ;
#175 = PERSON_AND_ORGANIZATION ( #5, #215 ) ;
#176 = FACE_OUTER_BOUND ( 'NONE', #26, .T. ) ;
#177 = DIRECTION ( 'NONE',  ( 4.279844320860524021E-31, 1.000000000000000000, 1.204669080539449344E-16 ) ) ;
#178 = PERSON_AND_ORGANIZATION ( #5, #215 ) ;
#179 = VERTEX_POINT ( 'NONE', #34 ) ;
#180 = FACE_OUTER_BOUND ( 'NONE', #191, .T. ) ;
#181 =( NAMED_UNIT ( * ) SI_UNIT ( $, .STERADIAN. ) SOLID_ANGLE_UNIT ( ) );
#182 = LOCAL_TIME ( 15, 33, 17.00000000000000000, #66 ) ;
#183 = CIRCLE ( 'NONE', #46, 3.000000000000002665 ) ;
#184 = PRODUCT_RELATED_PRODUCT_CATEGORY ( 'detail', '', ( #170 ) ) ;
#185 = DIRECTION ( 'NONE',  ( -4.275831445896958607E-31, -1.000000000000000000, -1.224646799147353207E-16 ) ) ;
#186 = ORIENTED_EDGE ( 'NONE', *, *, #239, .T. ) ;
#187 = FACE_OUTER_BOUND ( 'NONE', #121, .T. ) ;
#188 = ADVANCED_FACE ( 'NONE', ( #164 ), #207, .F. ) ;
#189 = DIRECTION ( 'NONE',  ( 4.275831445896958607E-31, 1.000000000000000000, 1.224646799147353207E-16 ) ) ;
#190 = APPROVAL_ROLE ( '' ) ;
#191 = EDGE_LOOP ( 'NONE', ( #76 ) ) ;
#192 = AXIS2_PLACEMENT_3D ( 'NONE', #14, #126, #48 ) ;
#193 = EDGE_CURVE ( 'NONE', #110, #110, #79, .T. ) ;
#194 = PLANE ( 'NONE',  #30 ) ;
#195 = APPLICATION_PROTOCOL_DEFINITION ( 'international standard', 'config_control_design', 1994, #90 ) ;
#196 = VERTEX_POINT ( 'NONE', #91 ) ;
#197 = PERSON_AND_ORGANIZATION ( #5, #215 ) ;
#198 = CLOSED_SHELL ( 'NONE', ( #29, #109, #56, #123 ) ) ;
#199 = AXIS2_PLACEMENT_3D ( 'NONE', #78, #210, #31 ) ;
#200 = FACE_OUTER_BOUND ( 'NONE', #243, .T. ) ;
#201 = COORDINATED_UNIVERSAL_TIME_OFFSET ( 1, 0, .AHEAD. ) ;
#202 = CARTESIAN_POINT ( 'NONE',  ( 0.000000000000000000, 0.000000000000000000, 0.000000000000000000 ) ) ;
#203 = FACE_OUTER_BOUND ( 'NONE', #42, .T. ) ;
#204 = ORIENTED_EDGE ( 'NONE', *, *, #133, .F. ) ;
#205 = DATE_AND_TIME ( #160, #62 ) ;
#206 = AXIS2_PLACEMENT_3D ( 'NONE', #104, #152, #136 ) ;
#207 = PLANE ( 'NONE',  #118 ) ;
#208 = FACE_BOUND ( 'NONE', #135, .T. ) ;
#209 = EDGE_LOOP ( 'NONE', ( #54 ) ) ;
#210 = DIRECTION ( 'NONE',  ( -3.491481338843133355E-15, 1.224646799147353207E-16, -1.000000000000000000 ) ) ;
#211 = CIRCLE ( 'NONE', #192, 3.600000000000000533 ) ;
#212 = COORDINATED_UNIVERSAL_TIME_OFFSET ( 1, 0, .AHEAD. ) ;
#213 = VERTEX_POINT ( 'NONE', #17 ) ;
#214 = PRODUCT_DEFINITION_SHAPE ( 'NONE', 'NONE',  #58 ) ;
#215 = ORGANIZATION ( 'UNSPECIFIED', 'UNSPECIFIED', '' ) ;
#216 = MECHANICAL_CONTEXT ( 'NONE', #90, 'mechanical' ) ;
#217 = APPROVAL_STATUS ( 'not_yet_approved' ) ;
#218 = VERTEX_POINT ( 'NONE', #88 ) ;
#219 = DIRECTION ( 'NONE',  ( 4.275831445896958607E-31, 1.000000000000000000, 1.224646799147353207E-16 ) ) ;
#220 = AXIS2_PLACEMENT_3D ( 'NONE', #38, #53, #67 ) ;
#221 = DATE_AND_TIME ( #236, #182 ) ;
#222 = PERSON_AND_ORGANIZATION ( #5, #215 ) ;
#223 = CARTESIAN_POINT ( 'NONE',  ( -1.368266062687026088E-30, 4.799231304517942156E-32, -3.918869757271528488E-16 ) ) ;
#224 = ORIENTED_EDGE ( 'NONE', *, *, #143, .T. ) ;
#225 = UNCERTAINTY_MEASURE_WITH_UNIT (LENGTH_MEASURE( 1.000000000000000082E-05 ), #12, 'distance_accuracy_value', 'NONE');
#226 = AXIS2_PLACEMENT_3D ( 'NONE', #36, #114, #19 ) ;
#227 = FACE_BOUND ( 'NONE', #120, .T. ) ;
#228 = DIRECTION ( 'NONE',  ( -3.491481338843133355E-15, 1.224646799147353207E-16, -1.000000000000000000 ) ) ;
#229 = DIRECTION ( 'NONE',  ( 1.000000000000000000, 0.000000000000000000, 0.000000000000000000 ) ) ;
#230 = EDGE_LOOP ( 'NONE', ( #204 ) ) ;
#231 = APPLICATION_PROTOCOL_DEFINITION ( 'international standard', 'config_control_design', 1994, #51 ) ;
#232 = CC_DESIGN_PERSON_AND_ORGANIZATION_ASSIGNMENT ( #175, #18, ( #153 ) ) ;
#233 = EDGE_CURVE ( 'NONE', #196, #196, #59, .T. ) ;
#234 = CONICAL_SURFACE ( 'NONE', #99, 3.199999999999998401, 0.7853981633974513876 ) ;
#235 = DESIGN_CONTEXT ( 'detailed design', #51, 'design' ) ;
#236 = CALENDAR_DATE ( 2023, 28, 9 ) ;
#237 = CARTESIAN_POINT ( 'NONE',  ( 1.396592535537248609E-15, -4.898587196589396435E-17, 0.3999999999999986899 ) ) ;
#238 = APPROVAL_DATE_TIME ( #205, #45 ) ;
#239 = EDGE_CURVE ( 'NONE', #161, #161, #211, .T. ) ;
#240 = CC_DESIGN_PERSON_AND_ORGANIZATION_ASSIGNMENT ( #20, #87, ( #86 ) ) ;
#241 = APPROVAL_DATE_TIME ( #221, #8 ) ;
#242 = DIRECTION ( 'NONE',  ( 3.491481338843133355E-15, -1.224646799147353207E-16, 1.000000000000000000 ) ) ;
#243 = EDGE_LOOP ( 'NONE', ( #68 ) ) ;
ENDSEC;
END-ISO-10303-21;
