ISO-10303-21;
HEADER;
FILE_DESCRIPTION (( 'STEP AP203' ),
    '1' );
FILE_NAME ('342142.step',
    '2023-09-28T13:33:16',
    ( '' ),
    ( '' ),
    'SwSTEP 2.0',
    'SolidWorks 2022',
    '' );
FILE_SCHEMA (( 'CONFIG_CONTROL_DESIGN' ));
ENDSEC;

DATA;
#1 = DIRECTION ( 'NONE',  ( 0.000000000000000000, 1.000000000000000000, 0.000000000000000000 ) ) ;
#2 = ADVANCED_FACE ( 'NONE', ( #28, #27 ), #41, .T. ) ;
#3 =( NAMED_UNIT ( * ) PLANE_ANGLE_UNIT ( ) SI_UNIT ( $, .RADIAN. ) );
#4 = CARTESIAN_POINT ( 'NONE',  ( 5.586370142149013368E-14, -1.959434878635765131E-15, 16.00000000000000000 ) ) ;
#5 = COORDINATED_UNIVERSAL_TIME_OFFSET ( 1, 0, .AHEAD. ) ;
#6 = APPROVAL ( #88, 'UNSPECIFIED' ) ;
#7 = PERSON_AND_ORGANIZATION ( #218, #180 ) ;
#8 = DIRECTION ( 'NONE',  ( 0.000000000000000000, 1.000000000000000000, 0.000000000000000000 ) ) ;
#9 = EDGE_LOOP ( 'NONE', ( #58 ) ) ;
#10 = CARTESIAN_POINT ( 'NONE',  ( 0.000000000000000000, 0.000000000000000000, 0.000000000000000000 ) ) ;
#11 = CC_DESIGN_DATE_AND_TIME_ASSIGNMENT ( #228, #85, ( #143 ) ) ;
#12 = LOCAL_TIME ( 15, 33, 16.00000000000000000, #5 ) ;
#13 = DIRECTION ( 'NONE',  ( 0.000000000000000000, 1.000000000000000000, 0.000000000000000000 ) ) ;
#14 = FACE_OUTER_BOUND ( 'NONE', #9, .T. ) ;
#15 = ADVANCED_FACE ( 'NONE', ( #94, #173 ), #153, .T. ) ;
#16 = CIRCLE ( 'NONE', #140, 2.999999999999990230 ) ;
#17 = COORDINATED_UNIVERSAL_TIME_OFFSET ( 1, 0, .AHEAD. ) ;
#18 = CC_DESIGN_PERSON_AND_ORGANIZATION_ASSIGNMENT ( #207, #107, ( #78 ) ) ;
#19 = PERSON_AND_ORGANIZATION ( #218, #180 ) ;
#20 = AXIS2_PLACEMENT_3D ( 'NONE', #62, #82, #131 ) ;
#21 = CARTESIAN_POINT ( 'NONE',  ( 1.396592535537253342E-15, 3.549999999999999822, 0.3999999999999999667 ) ) ;
#22 = PERSON_AND_ORGANIZATION ( #218, #180 ) ;
#23 = EDGE_LOOP ( 'NONE', ( #77 ) ) ;
#24 = DATE_AND_TIME ( #191, #231 ) ;
#25 = AXIS2_PLACEMENT_3D ( 'NONE', #194, #65, #47 ) ;
#26 = SECURITY_CLASSIFICATION ( '', '', #146 ) ;
#27 = FACE_BOUND ( 'NONE', #95, .T. ) ;
#28 = FACE_OUTER_BOUND ( 'NONE', #238, .T. ) ;
#29 = CLOSED_SHELL ( 'NONE', ( #209, #151, #110, #15 ) ) ;
#30 = AXIS2_PLACEMENT_3D ( 'NONE', #51, #106, #184 ) ;
#31 = DIRECTION ( 'NONE',  ( -3.491481338843133355E-15, 1.224646799147353207E-16, -1.000000000000000000 ) ) ;
#32 = DIRECTION ( 'NONE',  ( 0.000000000000000000, 1.000000000000000000, 0.000000000000000000 ) ) ;
#33 = MECHANICAL_CONTEXT ( 'NONE', #216, 'mechanical' ) ;
#34 = ORIENTED_EDGE ( 'NONE', *, *, #172, .T. ) ;
#35 = CARTESIAN_POINT ( 'NONE',  ( 5.918978411139538844E-14, 2.999999999999988010, 16.95262794416289864 ) ) ;
#36 = CALENDAR_DATE ( 2023, 28, 9 ) ;
#37 = PRODUCT_DEFINITION_SHAPE ( 'NONE', 'NONE',  #143 ) ;
#38 = PERSON_AND_ORGANIZATION ( #218, #180 ) ;
#39 = ORIENTED_EDGE ( 'NONE', *, *, #165, .F. ) ;
#40 = EDGE_LOOP ( 'NONE', ( #74 ) ) ;
#41 = CONICAL_SURFACE ( 'NONE', #89, 2.400000000000003464, 0.7853981633974335130 ) ;
#42 = CIRCLE ( 'NONE', #163, 3.550000000000000266 ) ;
#43 = ORIENTED_EDGE ( 'NONE', *, *, #136, .T. ) ;
#44 = FACE_OUTER_BOUND ( 'NONE', #40, .T. ) ;
#45 = DIRECTION ( 'NONE',  ( 4.340123818337433476E-31, 1.000000000000000000, 1.221636250687892480E-16 ) ) ;
#46 = FACE_OUTER_BOUND ( 'NONE', #234, .T. ) ;
#47 = DIRECTION ( 'NONE',  ( -4.275831445896958607E-31, -1.000000000000000000, -1.224646799147353207E-16 ) ) ;
#48 = CARTESIAN_POINT ( 'NONE',  ( 3.526396152231565067E-13, 1.799711739194212982E-32, 101.0000000000000000 ) ) ;
#49 = DIRECTION ( 'NONE',  ( -3.491481338843133355E-15, 1.224646799147353207E-16, -1.000000000000000000 ) ) ;
#50 = CIRCLE ( 'NONE', #181, 3.149999999999998135 ) ;
#51 = CARTESIAN_POINT ( 'NONE',  ( 0.000000000000000000, 0.000000000000000000, 0.000000000000000000 ) ) ;
#52 = VERTEX_POINT ( 'NONE', #21 ) ;
#53 = ADVANCED_FACE ( 'NONE', ( #44 ), #114, .F. ) ;
#54 = AXIS2_PLACEMENT_3D ( 'NONE', #60, #130, #214 ) ;
#55 = PERSON_AND_ORGANIZATION_ROLE ( 'design_owner' ) ;
#56 = APPROVAL ( #86, 'UNSPECIFIED' ) ;
#57 = ORIENTED_EDGE ( 'NONE', *, *, #76, .T. ) ;
#58 = ORIENTED_EDGE ( 'NONE', *, *, #165, .T. ) ;
#59 = APPROVAL_DATE_TIME ( #229, #56 ) ;
#60 = CARTESIAN_POINT ( 'NONE',  ( -1.346886905457541374E-30, 4.724243315384849275E-32, -3.857637417314160717E-16 ) ) ;
#61 = CC_DESIGN_DATE_AND_TIME_ASSIGNMENT ( #24, #171, ( #26 ) ) ;
#62 = CARTESIAN_POINT ( 'NONE',  ( 0.000000000000000000, 0.000000000000000000, 0.000000000000000000 ) ) ;
#63 = FACE_OUTER_BOUND ( 'NONE', #189, .T. ) ;
#64 = AXIS2_PLACEMENT_3D ( 'NONE', #222, #49, #32 ) ;
#65 = DIRECTION ( 'NONE',  ( 3.491481338843133355E-15, -1.224646799147353207E-16, 1.000000000000000000 ) ) ;
#66 = APPLICATION_CONTEXT ( 'configuration controlled 3d designs of mechanical parts and assemblies' ) ;
#67 = DIRECTION ( 'NONE',  ( 4.275831445896958607E-31, 1.000000000000000000, 1.224646799147353454E-16 ) ) ;
#68 = APPROVAL_PERSON_ORGANIZATION ( #185, #6, #104 ) ;
#69 = VERTEX_POINT ( 'NONE', #101 ) ;
#70 = CIRCLE ( 'NONE', #179, 3.549999999999999822 ) ;
#71 = LOCAL_TIME ( 15, 33, 16.00000000000000000, #92 ) ;
#72 = CALENDAR_DATE ( 2023, 28, 9 ) ;
#73 = SHAPE_DEFINITION_REPRESENTATION ( #37, #149 ) ;
#74 = ORIENTED_EDGE ( 'NONE', *, *, #215, .T. ) ;
#75 = AXIS2_PLACEMENT_3D ( 'NONE', #10, #31, #224 ) ;
#76 = EDGE_CURVE ( 'NONE', #52, #52, #70, .T. ) ;
#77 = ORIENTED_EDGE ( 'NONE', *, *, #172, .F. ) ;
#78 = PRODUCT_DEFINITION_FORMATION_WITH_SPECIFIED_SOURCE ( 'ANY', '', #213, .NOT_KNOWN. ) ;
#79 = ADVANCED_FACE ( 'NONE', ( #46 ), #221, .F. ) ;
#80 = DIRECTION ( 'NONE',  ( 4.275831445896958607E-31, 1.000000000000000000, 1.224646799147353207E-16 ) ) ;
#81 = DIRECTION ( 'NONE',  ( -3.491481338843133355E-15, 1.224646799147353207E-16, -1.000000000000000000 ) ) ;
#82 = DIRECTION ( 'NONE',  ( -3.491481338843133355E-15, 1.224646799147353207E-16, -1.000000000000000000 ) ) ;
#83 = VERTEX_POINT ( 'NONE', #158 ) ;
#84 = APPROVAL ( #233, 'UNSPECIFIED' ) ;
#85 = DATE_TIME_ROLE ( 'creation_date' ) ;
#86 = APPROVAL_STATUS ( 'not_yet_approved' ) ;
#87 = LOCAL_TIME ( 15, 33, 16.00000000000000000, #17 ) ;
#88 = APPROVAL_STATUS ( 'not_yet_approved' ) ;
#89 = AXIS2_PLACEMENT_3D ( 'NONE', #93, #170, #8 ) ;
#90 = ADVANCED_FACE ( 'NONE', ( #120, #63 ), #168, .T. ) ;
#91 = AXIS2_PLACEMENT_3D ( 'NONE', #4, #226, #137 ) ;
#92 = COORDINATED_UNIVERSAL_TIME_OFFSET ( 1, 0, .AHEAD. ) ;
#93 = CARTESIAN_POINT ( 'NONE',  ( 3.526396152231565067E-13, -1.236893267138826732E-14, 101.0000000000000000 ) ) ;
#94 = FACE_OUTER_BOUND ( 'NONE', #208, .T. ) ;
#95 = EDGE_LOOP ( 'NONE', ( #211 ) ) ;
#96 = PRODUCT_RELATED_PRODUCT_CATEGORY ( 'detail', '', ( #213 ) ) ;
#97 = AXIS2_PLACEMENT_3D ( 'NONE', #200, #100, #178 ) ;
#98 = DIRECTION ( 'NONE',  ( 3.491481338843133355E-15, -1.224646799147353207E-16, 1.000000000000000000 ) ) ;
#99 = CARTESIAN_POINT ( 'NONE',  ( 5.586370142149013368E-14, -1.959434878635765131E-15, 16.00000000000000000 ) ) ;
#100 = DIRECTION ( 'NONE',  ( -3.491481338843133355E-15, 1.224646799147353207E-16, -1.000000000000000000 ) ) ;
#101 = CARTESIAN_POINT ( 'NONE',  ( 5.586370142149013368E-14, 3.549999999999998046, 16.00000000000000000 ) ) ;
#102 = VERTEX_POINT ( 'NONE', #164 ) ;
#103 = CIRCLE ( 'NONE', #91, 3.550000000000000266 ) ;
#104 = APPROVAL_ROLE ( '' ) ;
#105 = CALENDAR_DATE ( 2023, 28, 9 ) ;
#106 = DIRECTION ( 'NONE',  ( 0.000000000000000000, 0.000000000000000000, 1.000000000000000000 ) ) ;
#107 = PERSON_AND_ORGANIZATION_ROLE ( 'design_supplier' ) ;
#108 = DATE_AND_TIME ( #169, #71 ) ;
#109 = EDGE_LOOP ( 'NONE', ( #43 ) ) ;
#110 = ADVANCED_FACE ( 'NONE', ( #243 ), #118, .T. ) ;
#111 = PERSON_AND_ORGANIZATION_ROLE ( 'classification_officer' ) ;
#112 = ORIENTED_EDGE ( 'NONE', *, *, #136, .F. ) ;
#113 = ORIENTED_EDGE ( 'NONE', *, *, #215, .F. ) ;
#114 = PLANE ( 'NONE',  #25 ) ;
#115 = MANIFOLD_SOLID_BREP ( 'Corps-Déplacer/Copier1[2]', #29 ) ;
#116 = DIRECTION ( 'NONE',  ( -3.491481338843133355E-15, 1.224646799147353207E-16, -1.000000000000000000 ) ) ;
#117 = MANIFOLD_SOLID_BREP ( 'Corps-Déplacer/Copier1[1]', #174 ) ;
#118 = PLANE ( 'NONE',  #121 ) ;
#119 = CARTESIAN_POINT ( 'NONE',  ( -6.734434527287706871E-31, 2.362121657692424638E-32, -1.928818708657080358E-16 ) ) ;
#120 = FACE_BOUND ( 'NONE', #190, .T. ) ;
#121 = AXIS2_PLACEMENT_3D ( 'NONE', #119, #198, #80 ) ;
#122 = CARTESIAN_POINT ( 'NONE',  ( 5.918978411139538844E-14, -2.076098154895506980E-15, 16.95262794416289864 ) ) ;
#123 = VERTEX_POINT ( 'NONE', #225 ) ;
#124 = CARTESIAN_POINT ( 'NONE',  ( -1.710569414459005214E-46, 3.149999999999998135, 0.000000000000000000 ) ) ;
#125 = APPROVAL_PERSON_ORGANIZATION ( #22, #84, #230 ) ;
#126 = APPLICATION_PROTOCOL_DEFINITION ( 'international standard', 'config_control_design', 1994, #216 ) ;
#127 = CC_DESIGN_PERSON_AND_ORGANIZATION_ASSIGNMENT ( #138, #55, ( #213 ) ) ;
#128 = ORIENTED_EDGE ( 'NONE', *, *, #76, .F. ) ;
#129 = ORIENTED_EDGE ( 'NONE', *, *, #196, .F. ) ;
#130 = DIRECTION ( 'NONE',  ( 3.491481338843133355E-15, -1.224646799147353207E-16, 1.000000000000000000 ) ) ;
#131 = DIRECTION ( 'NONE',  ( 4.275831445896958607E-31, 1.000000000000000000, 1.224646799147353207E-16 ) ) ;
#132 = DIRECTION ( 'NONE',  ( 0.000000000000000000, 1.000000000000000000, 0.000000000000000000 ) ) ;
#133 = EDGE_CURVE ( 'NONE', #69, #69, #42, .T. ) ;
#134 = DIRECTION ( 'NONE',  ( -3.491481338843133355E-15, 1.224646799147353207E-16, -1.000000000000000000 ) ) ;
#135 = FACE_OUTER_BOUND ( 'NONE', #232, .T. ) ;
#136 = EDGE_CURVE ( 'NONE', #159, #159, #50, .T. ) ;
#137 = DIRECTION ( 'NONE',  ( 0.000000000000000000, 1.000000000000000000, 0.000000000000000000 ) ) ;
#138 = PERSON_AND_ORGANIZATION ( #218, #180 ) ;
#139 = APPROVAL_DATE_TIME ( #187, #6 ) ;
#140 = AXIS2_PLACEMENT_3D ( 'NONE', #122, #116, #132 ) ;
#141 =( LENGTH_UNIT ( ) NAMED_UNIT ( * ) SI_UNIT ( .MILLI., .METRE. ) );
#142 = APPROVAL_DATE_TIME ( #108, #84 ) ;
#143 = PRODUCT_DEFINITION ( 'UNKNOWN', '', #78, #155 ) ;
#144 = COORDINATED_UNIVERSAL_TIME_OFFSET ( 1, 0, .AHEAD. ) ;
#145 = CIRCLE ( 'NONE', #97, 2.400000000000003464 ) ;
#146 = SECURITY_CLASSIFICATION_LEVEL ( 'unclassified' ) ;
#147 = EDGE_LOOP ( 'NONE', ( #128 ) ) ;
#148 = PERSON_AND_ORGANIZATION_ROLE ( 'creator' ) ;
#149 = ADVANCED_BREP_SHAPE_REPRESENTATION ( '342142', ( #117, #115, #30 ), #220 ) ;
#150 = DIRECTION ( 'NONE',  ( 4.275831445896958607E-31, 1.000000000000000000, 1.224646799147353207E-16 ) ) ;
#151 = ADVANCED_FACE ( 'NONE', ( #135 ), #199, .T. ) ;
#152 = CARTESIAN_POINT ( 'NONE',  ( 5.586370142149013368E-14, 2.662073614224794243E-32, 16.00000000000000000 ) ) ;
#153 = CONICAL_SURFACE ( 'NONE', #54, 3.149999999999998135, 0.7853981633974502774 ) ;
#154 = CARTESIAN_POINT ( 'NONE',  ( 1.396592535537251764E-15, -4.898587196589406912E-17, 0.3999999999999995226 ) ) ;
#155 = DESIGN_CONTEXT ( 'detailed design', #66, 'design' ) ;
#156 = CARTESIAN_POINT ( 'NONE',  ( 5.586370142149013368E-14, -1.959434878635765131E-15, 16.00000000000000000 ) ) ;
#157 = CC_DESIGN_APPROVAL ( #56, ( #78 ) ) ;
#158 = CARTESIAN_POINT ( 'NONE',  ( 5.586370142149013368E-14, 3.549999999999998046, 16.00000000000000000 ) ) ;
#159 = VERTEX_POINT ( 'NONE', #124 ) ;
#160 = CC_DESIGN_PERSON_AND_ORGANIZATION_ASSIGNMENT ( #7, #148, ( #78 ) ) ;
#161 = COORDINATED_UNIVERSAL_TIME_OFFSET ( 1, 0, .AHEAD. ) ;
#162 = APPROVAL_ROLE ( '' ) ;
#163 = AXIS2_PLACEMENT_3D ( 'NONE', #156, #182, #13 ) ;
#164 = CARTESIAN_POINT ( 'NONE',  ( 3.505447264198505131E-13, 2.999999999999990674, 100.3999999999999915 ) ) ;
#165 = EDGE_CURVE ( 'NONE', #102, #102, #202, .T. ) ;
#166 = PERSON_AND_ORGANIZATION ( #218, #180 ) ;
#167 = ORIENTED_EDGE ( 'NONE', *, *, #133, .T. ) ;
#168 = CONICAL_SURFACE ( 'NONE', #197, 3.550000000000000266, 0.5235987755982995928 ) ;
#169 = CALENDAR_DATE ( 2023, 28, 9 ) ;
#170 = DIRECTION ( 'NONE',  ( -3.491481338843133355E-15, 1.224646799147353207E-16, -1.000000000000000000 ) ) ;
#171 = DATE_TIME_ROLE ( 'classification_date' ) ;
#172 = EDGE_CURVE ( 'NONE', #203, #203, #16, .T. ) ;
#173 = FACE_BOUND ( 'NONE', #236, .T. ) ;
#174 = CLOSED_SHELL ( 'NONE', ( #53, #90, #201, #2, #79 ) ) ;
#175 = CYLINDRICAL_SURFACE ( 'NONE', #75, 3.550000000000000266 ) ;
#176 = CC_DESIGN_PERSON_AND_ORGANIZATION_ASSIGNMENT ( #166, #111, ( #26 ) ) ;
#177 = DIRECTION ( 'NONE',  ( -4.275831445896958607E-31, -1.000000000000000000, -1.224646799147353207E-16 ) ) ;
#178 = DIRECTION ( 'NONE',  ( 0.000000000000000000, 1.000000000000000000, 0.000000000000000000 ) ) ;
#179 = AXIS2_PLACEMENT_3D ( 'NONE', #154, #242, #45 ) ;
#180 = ORGANIZATION ( 'UNSPECIFIED', 'UNSPECIFIED', '' ) ;
#181 = AXIS2_PLACEMENT_3D ( 'NONE', #217, #81, #67 ) ;
#182 = DIRECTION ( 'NONE',  ( -3.491481338843133355E-15, 1.224646799147353207E-16, -1.000000000000000000 ) ) ;
#183 = FACE_OUTER_BOUND ( 'NONE', #23, .T. ) ;
#184 = DIRECTION ( 'NONE',  ( 1.000000000000000000, 0.000000000000000000, 0.000000000000000000 ) ) ;
#185 = PERSON_AND_ORGANIZATION ( #218, #180 ) ;
#186 = UNCERTAINTY_MEASURE_WITH_UNIT (LENGTH_MEASURE( 1.000000000000000082E-05 ), #141, 'distance_accuracy_value', 'NONE');
#187 = DATE_AND_TIME ( #36, #87 ) ;
#188 = APPLICATION_PROTOCOL_DEFINITION ( 'international standard', 'config_control_design', 1994, #66 ) ;
#189 = EDGE_LOOP ( 'NONE', ( #113 ) ) ;
#190 = EDGE_LOOP ( 'NONE', ( #34 ) ) ;
#191 = CALENDAR_DATE ( 2023, 28, 9 ) ;
#192 = CC_DESIGN_PERSON_AND_ORGANIZATION_ASSIGNMENT ( #38, #205, ( #143 ) ) ;
#193 = ORIENTED_EDGE ( 'NONE', *, *, #133, .F. ) ;
#194 = CARTESIAN_POINT ( 'NONE',  ( 5.586370142149013368E-14, 2.662073614224794243E-32, 16.00000000000000000 ) ) ;
#195 = FACE_OUTER_BOUND ( 'NONE', #147, .T. ) ;
#196 = EDGE_CURVE ( 'NONE', #123, #123, #145, .T. ) ;
#197 = AXIS2_PLACEMENT_3D ( 'NONE', #99, #240, #1 ) ;
#198 = DIRECTION ( 'NONE',  ( -3.491481338843133355E-15, 1.224646799147353207E-16, -1.000000000000000000 ) ) ;
#199 = PLANE ( 'NONE',  #227 ) ;
#200 = CARTESIAN_POINT ( 'NONE',  ( 3.526396152231565067E-13, -1.236893267138826732E-14, 101.0000000000000000 ) ) ;
#201 = ADVANCED_FACE ( 'NONE', ( #183, #14 ), #239, .T. ) ;
#202 = CIRCLE ( 'NONE', #64, 3.000000000000002665 ) ;
#203 = VERTEX_POINT ( 'NONE', #35 ) ;
#204 =( NAMED_UNIT ( * ) SI_UNIT ( $, .STERADIAN. ) SOLID_ANGLE_UNIT ( ) );
#205 = PERSON_AND_ORGANIZATION_ROLE ( 'creator' ) ;
#206 = APPROVAL_PERSON_ORGANIZATION ( #19, #56, #162 ) ;
#207 = PERSON_AND_ORGANIZATION ( #218, #180 ) ;
#208 = EDGE_LOOP ( 'NONE', ( #57 ) ) ;
#209 = ADVANCED_FACE ( 'NONE', ( #219, #195 ), #175, .T. ) ;
#210 = AXIS2_PLACEMENT_3D ( 'NONE', #48, #134, #150 ) ;
#211 = ORIENTED_EDGE ( 'NONE', *, *, #196, .T. ) ;
#212 = CC_DESIGN_SECURITY_CLASSIFICATION ( #26, ( #78 ) ) ;
#213 = PRODUCT ( '342142', '342142', '', ( #33 ) ) ;
#214 = DIRECTION ( 'NONE',  ( -4.275831445896957731E-31, -1.000000000000000000, -1.224646799147353454E-16 ) ) ;
#215 = EDGE_CURVE ( 'NONE', #83, #83, #103, .T. ) ;
#216 = APPLICATION_CONTEXT ( 'configuration controlled 3d designs of mechanical parts and assemblies' ) ;
#217 = CARTESIAN_POINT ( 'NONE',  ( -1.346886905457541374E-30, 4.724243315384849275E-32, -3.857637417314160717E-16 ) ) ;
#218 = PERSON ( 'UNSPECIFIED', 'UNSPECIFIED', 'UNSPECIFIED', ('UNSPECIFIED'), ('UNSPECIFIED'), ('UNSPECIFIED') ) ;
#219 = FACE_OUTER_BOUND ( 'NONE', #235, .T. ) ;
#220 =( GEOMETRIC_REPRESENTATION_CONTEXT ( 3 ) GLOBAL_UNCERTAINTY_ASSIGNED_CONTEXT ( ( #186 ) ) GLOBAL_UNIT_ASSIGNED_CONTEXT ( ( #141, #3, #204 ) ) REPRESENTATION_CONTEXT ( 'NONE', 'WORKASPACE' ) );
#221 = PLANE ( 'NONE',  #210 ) ;
#222 = CARTESIAN_POINT ( 'NONE',  ( 3.505447264198505131E-13, -1.229545386343942402E-14, 100.3999999999999915 ) ) ;
#223 = CC_DESIGN_APPROVAL ( #84, ( #26 ) ) ;
#224 = DIRECTION ( 'NONE',  ( 4.275831445896958607E-31, 1.000000000000000000, 1.224646799147353207E-16 ) ) ;
#225 = CARTESIAN_POINT ( 'NONE',  ( 3.526396152231565067E-13, 2.399999999999990585, 101.0000000000000000 ) ) ;
#226 = DIRECTION ( 'NONE',  ( -3.491481338843133355E-15, 1.224646799147353207E-16, -1.000000000000000000 ) ) ;
#227 = AXIS2_PLACEMENT_3D ( 'NONE', #152, #98, #177 ) ;
#228 = DATE_AND_TIME ( #105, #241 ) ;
#229 = DATE_AND_TIME ( #72, #12 ) ;
#230 = APPROVAL_ROLE ( '' ) ;
#231 = LOCAL_TIME ( 15, 33, 16.00000000000000000, #144 ) ;
#232 = EDGE_LOOP ( 'NONE', ( #193 ) ) ;
#233 = APPROVAL_STATUS ( 'not_yet_approved' ) ;
#234 = EDGE_LOOP ( 'NONE', ( #129 ) ) ;
#235 = EDGE_LOOP ( 'NONE', ( #167 ) ) ;
#236 = EDGE_LOOP ( 'NONE', ( #112 ) ) ;
#237 = CC_DESIGN_APPROVAL ( #6, ( #143 ) ) ;
#238 = EDGE_LOOP ( 'NONE', ( #39 ) ) ;
#239 = CYLINDRICAL_SURFACE ( 'NONE', #20, 2.999999999999996447 ) ;
#240 = DIRECTION ( 'NONE',  ( -3.491481338843133355E-15, 1.224646799147353207E-16, -1.000000000000000000 ) ) ;
#241 = LOCAL_TIME ( 15, 33, 16.00000000000000000, #161 ) ;
#242 = DIRECTION ( 'NONE',  ( -3.491481338843133355E-15, 1.224646799147353207E-16, -1.000000000000000000 ) ) ;
#243 = FACE_OUTER_BOUND ( 'NONE', #109, .T. ) ;
ENDSEC;
END-ISO-10303-21;
