ISO-10303-21;
HEADER;
FILE_DESCRIPTION (( 'STEP AP203' ),
    '1' );
FILE_NAME ('342134.step',
    '2023-09-28T13:33:16',
    ( '' ),
    ( '' ),
    'SwSTEP 2.0',
    'SolidWorks 2022',
    '' );
FILE_SCHEMA (( 'CONFIG_CONTROL_DESIGN' ));
ENDSEC;

DATA;
#1 = ORIENTED_EDGE ( 'NONE', *, *, #5, .F. ) ;
#2 = FACE_OUTER_BOUND ( 'NONE', #188, .T. ) ;
#3 = ORIENTED_EDGE ( 'NONE', *, *, #11, .F. ) ;
#4 = CIRCLE ( 'NONE', #116, 3.510000000000000231 ) ;
#5 = EDGE_CURVE ( 'NONE', #118, #118, #183, .T. ) ;
#6 = CC_DESIGN_SECURITY_CLASSIFICATION ( #32, ( #117 ) ) ;
#7 = EDGE_LOOP ( 'NONE', ( #81 ) ) ;
#8 = DIRECTION ( 'NONE',  ( 0.000000000000000000, 0.000000000000000000, 1.000000000000000000 ) ) ;
#9 = DATE_AND_TIME ( #124, #232 ) ;
#10 = APPLICATION_CONTEXT ( 'configuration controlled 3d designs of mechanical parts and assemblies' ) ;
#11 = EDGE_CURVE ( 'NONE', #135, #135, #4, .T. ) ;
#12 = CONICAL_SURFACE ( 'NONE', #131, 2.400000000000003464, 0.7853981633974335130 ) ;
#13 = CARTESIAN_POINT ( 'NONE',  ( -1.329783579673953428E-30, 4.664252924078374533E-32, -3.808651545348266204E-16 ) ) ;
#14 = CIRCLE ( 'NONE', #147, 2.999999999999990230 ) ;
#15 = DIRECTION ( 'NONE',  ( 0.000000000000000000, 1.000000000000000000, 0.000000000000000000 ) ) ;
#16 = CYLINDRICAL_SURFACE ( 'NONE', #54, 2.999999999999996447 ) ;
#17 = EDGE_LOOP ( 'NONE', ( #173 ) ) ;
#18 = CARTESIAN_POINT ( 'NONE',  ( 5.586370142149013368E-14, 2.632078418571556872E-32, 16.00000000000000000 ) ) ;
#19 = ORIENTED_EDGE ( 'NONE', *, *, #91, .T. ) ;
#20 = PRODUCT_RELATED_PRODUCT_CATEGORY ( 'detail', '', ( #106 ) ) ;
#21 = EDGE_LOOP ( 'NONE', ( #52 ) ) ;
#22 = COORDINATED_UNIVERSAL_TIME_OFFSET ( 1, 0, .AHEAD. ) ;
#23 = EDGE_LOOP ( 'NONE', ( #72 ) ) ;
#24 = COORDINATED_UNIVERSAL_TIME_OFFSET ( 1, 0, .AHEAD. ) ;
#25 = DATE_AND_TIME ( #127, #202 ) ;
#26 = CARTESIAN_POINT ( 'NONE',  ( 0.000000000000000000, 0.000000000000000000, 0.000000000000000000 ) ) ;
#27 = PRODUCT_DEFINITION ( 'UNKNOWN', '', #117, #231 ) ;
#28 = AXIS2_PLACEMENT_3D ( 'NONE', #26, #182, #88 ) ;
#29 = CYLINDRICAL_SURFACE ( 'NONE', #28, 3.510000000000000231 ) ;
#30 = FACE_OUTER_BOUND ( 'NONE', #175, .T. ) ;
#31 = AXIS2_PLACEMENT_3D ( 'NONE', #238, #234, #44 ) ;
#32 = SECURITY_CLASSIFICATION ( '', '', #99 ) ;
#33 = CARTESIAN_POINT ( 'NONE',  ( 5.894788718849318810E-14, 2.999999999999988010, 16.88334591186013967 ) ) ;
#34 = ADVANCED_FACE ( 'NONE', ( #213, #39 ), #12, .T. ) ;
#35 = VERTEX_POINT ( 'NONE', #73 ) ;
#36 = CC_DESIGN_PERSON_AND_ORGANIZATION_ASSIGNMENT ( #162, #193, ( #117 ) ) ;
#37 = CALENDAR_DATE ( 2023, 28, 9 ) ;
#38 = PERSON_AND_ORGANIZATION ( #140, #199 ) ;
#39 = FACE_BOUND ( 'NONE', #17, .T. ) ;
#40 = AXIS2_PLACEMENT_3D ( 'NONE', #184, #110, #166 ) ;
#41 = PERSON_AND_ORGANIZATION ( #140, #199 ) ;
#42 = APPROVAL_DATE_TIME ( #104, #186 ) ;
#43 = CC_DESIGN_PERSON_AND_ORGANIZATION_ASSIGNMENT ( #80, #228, ( #117 ) ) ;
#44 = DIRECTION ( 'NONE',  ( 4.275831445896958607E-31, 1.000000000000000000, 1.224646799147353207E-16 ) ) ;
#45 = FACE_OUTER_BOUND ( 'NONE', #123, .T. ) ;
#46 = AXIS2_PLACEMENT_3D ( 'NONE', #185, #236, #67 ) ;
#47 = DIRECTION ( 'NONE',  ( -3.491481338843133355E-15, 1.224646799147353207E-16, -1.000000000000000000 ) ) ;
#48 = FACE_OUTER_BOUND ( 'NONE', #192, .T. ) ;
#49 = DIRECTION ( 'NONE',  ( 3.491481338843133355E-15, -1.224646799147353207E-16, 1.000000000000000000 ) ) ;
#50 = EDGE_CURVE ( 'NONE', #206, #206, #89, .T. ) ;
#51 = CARTESIAN_POINT ( 'NONE',  ( 5.586370142149013368E-14, -1.959434878635765131E-15, 16.00000000000000000 ) ) ;
#52 = ORIENTED_EDGE ( 'NONE', *, *, #65, .T. ) ;
#53 =( NAMED_UNIT ( * ) SI_UNIT ( $, .STERADIAN. ) SOLID_ANGLE_UNIT ( ) );
#54 = AXIS2_PLACEMENT_3D ( 'NONE', #171, #223, #68 ) ;
#55 = SHAPE_DEFINITION_REPRESENTATION ( #62, #90 ) ;
#56 = APPROVAL_STATUS ( 'not_yet_approved' ) ;
#57 = DIRECTION ( 'NONE',  ( 4.389583918831306373E-31, 1.000000000000000000, 1.235558031322512059E-16 ) ) ;
#58 = PERSON_AND_ORGANIZATION_ROLE ( 'creator' ) ;
#59 = CC_DESIGN_APPROVAL ( #237, ( #27 ) ) ;
#60 = PERSON_AND_ORGANIZATION ( #140, #199 ) ;
#61 = PERSON_AND_ORGANIZATION ( #140, #199 ) ;
#62 = PRODUCT_DEFINITION_SHAPE ( 'NONE', 'NONE',  #27 ) ;
#63 = DIRECTION ( 'NONE',  ( 0.000000000000000000, 1.000000000000000000, 0.000000000000000000 ) ) ;
#64 = DIRECTION ( 'NONE',  ( -4.275831445896958607E-31, -1.000000000000000000, -1.224646799147353207E-16 ) ) ;
#65 = EDGE_CURVE ( 'NONE', #243, #243, #14, .T. ) ;
#66 = AXIS2_PLACEMENT_3D ( 'NONE', #211, #8, #179 ) ;
#67 = DIRECTION ( 'NONE',  ( -4.275831445896958607E-31, -1.000000000000000000, -1.224646799147353207E-16 ) ) ;
#68 = DIRECTION ( 'NONE',  ( 4.275831445896958607E-31, 1.000000000000000000, 1.224646799147353207E-16 ) ) ;
#69 = CONICAL_SURFACE ( 'NONE', #214, 3.109999999999998099, 0.7853981633974508325 ) ;
#70 = FACE_OUTER_BOUND ( 'NONE', #7, .T. ) ;
#71 = VERTEX_POINT ( 'NONE', #114 ) ;
#72 = ORIENTED_EDGE ( 'NONE', *, *, #79, .F. ) ;
#73 = CARTESIAN_POINT ( 'NONE',  ( 0.000000000000000000, 3.109999999999998099, 0.000000000000000000 ) ) ;
#74 = APPROVAL_STATUS ( 'not_yet_approved' ) ;
#75 = CC_DESIGN_APPROVAL ( #186, ( #117 ) ) ;
#76 = EDGE_LOOP ( 'NONE', ( #93 ) ) ;
#77 = DATE_TIME_ROLE ( 'creation_date' ) ;
#78 = DIRECTION ( 'NONE',  ( -3.491481338843133355E-15, 1.224646799147353207E-16, -1.000000000000000000 ) ) ;
#79 = EDGE_CURVE ( 'NONE', #35, #35, #151, .T. ) ;
#80 = PERSON_AND_ORGANIZATION ( #140, #199 ) ;
#81 = ORIENTED_EDGE ( 'NONE', *, *, #65, .F. ) ;
#82 = PERSON_AND_ORGANIZATION ( #140, #199 ) ;
#83 = AXIS2_PLACEMENT_3D ( 'NONE', #133, #204, #225 ) ;
#84 = APPROVAL_PERSON_ORGANIZATION ( #196, #122, #85 ) ;
#85 = APPROVAL_ROLE ( '' ) ;
#86 = ADVANCED_FACE ( 'NONE', ( #235, #221 ), #69, .T. ) ;
#87 = PLANE ( 'NONE',  #143 ) ;
#88 = DIRECTION ( 'NONE',  ( 4.275831445896958607E-31, 1.000000000000000000, 1.224646799147353207E-16 ) ) ;
#89 = CIRCLE ( 'NONE', #40, 3.000000000000002665 ) ;
#90 = ADVANCED_BREP_SHAPE_REPRESENTATION ( '342134', ( #134, #136, #66 ), #100 ) ;
#91 = EDGE_CURVE ( 'NONE', #71, #71, #107, .T. ) ;
#92 = DIRECTION ( 'NONE',  ( -3.491481338843133355E-15, 1.224646799147353207E-16, -1.000000000000000000 ) ) ;
#93 = ORIENTED_EDGE ( 'NONE', *, *, #157, .F. ) ;
#94 = DIRECTION ( 'NONE',  ( 4.275831445896958607E-31, 1.000000000000000000, 1.224646799147353207E-16 ) ) ;
#95 = EDGE_LOOP ( 'NONE', ( #172 ) ) ;
#96 = APPLICATION_CONTEXT ( 'configuration controlled 3d designs of mechanical parts and assemblies' ) ;
#97 = APPLICATION_PROTOCOL_DEFINITION ( 'international standard', 'config_control_design', 1994, #10 ) ;
#98 = ORIENTED_EDGE ( 'NONE', *, *, #50, .F. ) ;
#99 = SECURITY_CLASSIFICATION_LEVEL ( 'unclassified' ) ;
#100 =( GEOMETRIC_REPRESENTATION_CONTEXT ( 3 ) GLOBAL_UNCERTAINTY_ASSIGNED_CONTEXT ( ( #174 ) ) GLOBAL_UNIT_ASSIGNED_CONTEXT ( ( #156, #169, #53 ) ) REPRESENTATION_CONTEXT ( 'NONE', 'WORKASPACE' ) );
#101 = CARTESIAN_POINT ( 'NONE',  ( 3.526396152231565067E-13, -1.236893267138826732E-14, 101.0000000000000000 ) ) ;
#102 = ADVANCED_FACE ( 'NONE', ( #201, #30 ), #29, .T. ) ;
#103 = COORDINATED_UNIVERSAL_TIME_OFFSET ( 1, 0, .AHEAD. ) ;
#104 = DATE_AND_TIME ( #37, #158 ) ;
#105 = CLOSED_SHELL ( 'NONE', ( #212, #148, #205, #34, #165 ) ) ;
#106 = PRODUCT ( '342134', '342134', '', ( #198 ) ) ;
#107 = CIRCLE ( 'NONE', #241, 3.510000000000000231 ) ;
#108 = DIRECTION ( 'NONE',  ( -3.491481338843133355E-15, 1.224646799147353207E-16, -1.000000000000000000 ) ) ;
#109 = PLANE ( 'NONE',  #46 ) ;
#110 = DIRECTION ( 'NONE',  ( -3.491481338843133355E-15, 1.224646799147353207E-16, -1.000000000000000000 ) ) ;
#111 = CC_DESIGN_DATE_AND_TIME_ASSIGNMENT ( #9, #77, ( #27 ) ) ;
#112 = CC_DESIGN_APPROVAL ( #122, ( #32 ) ) ;
#113 = CARTESIAN_POINT ( 'NONE',  ( 5.586370142149013368E-14, 3.509999999999998010, 16.00000000000000000 ) ) ;
#114 = CARTESIAN_POINT ( 'NONE',  ( 5.586370142149013368E-14, 3.509999999999998010, 16.00000000000000000 ) ) ;
#115 = ADVANCED_FACE ( 'NONE', ( #45 ), #87, .T. ) ;
#116 = AXIS2_PLACEMENT_3D ( 'NONE', #161, #227, #57 ) ;
#117 = PRODUCT_DEFINITION_FORMATION_WITH_SPECIFIED_SOURCE ( 'ANY', '', #106, .NOT_KNOWN. ) ;
#118 = VERTEX_POINT ( 'NONE', #153 ) ;
#119 = EDGE_LOOP ( 'NONE', ( #98 ) ) ;
#120 = FACE_OUTER_BOUND ( 'NONE', #178, .T. ) ;
#121 = COORDINATED_UNIVERSAL_TIME_OFFSET ( 1, 0, .AHEAD. ) ;
#122 = APPROVAL ( #56, 'UNSPECIFIED' ) ;
#123 = EDGE_LOOP ( 'NONE', ( #194 ) ) ;
#124 = CALENDAR_DATE ( 2023, 28, 9 ) ;
#125 = AXIS2_PLACEMENT_3D ( 'NONE', #18, #49, #187 ) ;
#126 = EDGE_LOOP ( 'NONE', ( #146 ) ) ;
#127 = CALENDAR_DATE ( 2023, 28, 9 ) ;
#128 = DATE_TIME_ROLE ( 'classification_date' ) ;
#129 = CARTESIAN_POINT ( 'NONE',  ( 5.894788718849318810E-14, -2.067613552985707415E-15, 16.88334591186013967 ) ) ;
#130 = CARTESIAN_POINT ( 'NONE',  ( -6.648917898369767139E-31, 2.332126462039187266E-32, -1.904325772674133102E-16 ) ) ;
#131 = AXIS2_PLACEMENT_3D ( 'NONE', #203, #47, #15 ) ;
#132 = FACE_OUTER_BOUND ( 'NONE', #76, .T. ) ;
#133 = CARTESIAN_POINT ( 'NONE',  ( 5.586370142149013368E-14, -1.959434878635765131E-15, 16.00000000000000000 ) ) ;
#134 = MANIFOLD_SOLID_BREP ( 'Corps-Déplacer/Copier1[1]', #105 ) ;
#135 = VERTEX_POINT ( 'NONE', #190 ) ;
#136 = MANIFOLD_SOLID_BREP ( 'Corps-Déplacer/Copier1[2]', #207 ) ;
#137 = ORIENTED_EDGE ( 'NONE', *, *, #50, .T. ) ;
#138 = PLANE ( 'NONE',  #170 ) ;
#139 = ADVANCED_FACE ( 'NONE', ( #132 ), #109, .T. ) ;
#140 = PERSON ( 'UNSPECIFIED', 'UNSPECIFIED', 'UNSPECIFIED', ('UNSPECIFIED'), ('UNSPECIFIED'), ('UNSPECIFIED') ) ;
#141 = PERSON_AND_ORGANIZATION_ROLE ( 'design_owner' ) ;
#142 = APPROVAL_ROLE ( '' ) ;
#143 = AXIS2_PLACEMENT_3D ( 'NONE', #130, #108, #150 ) ;
#144 = CC_DESIGN_PERSON_AND_ORGANIZATION_ASSIGNMENT ( #41, #226, ( #32 ) ) ;
#145 = CALENDAR_DATE ( 2023, 28, 9 ) ;
#146 = ORIENTED_EDGE ( 'NONE', *, *, #157, .T. ) ;
#147 = AXIS2_PLACEMENT_3D ( 'NONE', #129, #219, #233 ) ;
#148 = ADVANCED_FACE ( 'NONE', ( #152, #48 ), #189, .T. ) ;
#149 = CARTESIAN_POINT ( 'NONE',  ( 5.586370142149013368E-14, -1.959434878635765131E-15, 16.00000000000000000 ) ) ;
#150 = DIRECTION ( 'NONE',  ( 4.275831445896958607E-31, 1.000000000000000000, 1.224646799147353207E-16 ) ) ;
#151 = CIRCLE ( 'NONE', #31, 3.109999999999998099 ) ;
#152 = FACE_BOUND ( 'NONE', #21, .T. ) ;
#153 = CARTESIAN_POINT ( 'NONE',  ( 3.526396152231565067E-13, 2.399999999999990585, 101.0000000000000000 ) ) ;
#154 = AXIS2_PLACEMENT_3D ( 'NONE', #101, #78, #160 ) ;
#155 = CARTESIAN_POINT ( 'NONE',  ( 3.526396152231565067E-13, 1.799711739194212982E-32, 101.0000000000000000 ) ) ;
#156 =( LENGTH_UNIT ( ) NAMED_UNIT ( * ) SI_UNIT ( .MILLI., .METRE. ) );
#157 = EDGE_CURVE ( 'NONE', #240, #240, #164, .T. ) ;
#158 = LOCAL_TIME ( 15, 33, 16.00000000000000000, #103 ) ;
#159 = APPROVAL_STATUS ( 'not_yet_approved' ) ;
#160 = DIRECTION ( 'NONE',  ( 0.000000000000000000, 1.000000000000000000, 0.000000000000000000 ) ) ;
#161 = CARTESIAN_POINT ( 'NONE',  ( 1.396592535537251764E-15, -4.898587196589406912E-17, 0.3999999999999995226 ) ) ;
#162 = PERSON_AND_ORGANIZATION ( #140, #199 ) ;
#163 = APPLICATION_PROTOCOL_DEFINITION ( 'international standard', 'config_control_design', 1994, #96 ) ;
#164 = CIRCLE ( 'NONE', #218, 3.510000000000000231 ) ;
#165 = ADVANCED_FACE ( 'NONE', ( #120 ), #138, .F. ) ;
#166 = DIRECTION ( 'NONE',  ( 0.000000000000000000, 1.000000000000000000, 0.000000000000000000 ) ) ;
#167 = PLANE ( 'NONE',  #125 ) ;
#168 = CC_DESIGN_PERSON_AND_ORGANIZATION_ASSIGNMENT ( #38, #58, ( #27 ) ) ;
#169 =( NAMED_UNIT ( * ) PLANE_ANGLE_UNIT ( ) SI_UNIT ( $, .RADIAN. ) );
#170 = AXIS2_PLACEMENT_3D ( 'NONE', #155, #208, #94 ) ;
#171 = CARTESIAN_POINT ( 'NONE',  ( 0.000000000000000000, 0.000000000000000000, 0.000000000000000000 ) ) ;
#172 = ORIENTED_EDGE ( 'NONE', *, *, #11, .T. ) ;
#173 = ORIENTED_EDGE ( 'NONE', *, *, #5, .T. ) ;
#174 = UNCERTAINTY_MEASURE_WITH_UNIT (LENGTH_MEASURE( 1.000000000000000082E-05 ), #156, 'distance_accuracy_value', 'NONE');
#175 = EDGE_LOOP ( 'NONE', ( #3 ) ) ;
#176 = LOCAL_TIME ( 15, 33, 16.00000000000000000, #24 ) ;
#177 = APPROVAL_DATE_TIME ( #180, #237 ) ;
#178 = EDGE_LOOP ( 'NONE', ( #1 ) ) ;
#179 = DIRECTION ( 'NONE',  ( 1.000000000000000000, 0.000000000000000000, 0.000000000000000000 ) ) ;
#180 = DATE_AND_TIME ( #145, #220 ) ;
#181 = CC_DESIGN_PERSON_AND_ORGANIZATION_ASSIGNMENT ( #82, #141, ( #106 ) ) ;
#182 = DIRECTION ( 'NONE',  ( -3.491481338843133355E-15, 1.224646799147353207E-16, -1.000000000000000000 ) ) ;
#183 = CIRCLE ( 'NONE', #154, 2.400000000000003464 ) ;
#184 = CARTESIAN_POINT ( 'NONE',  ( 3.505447264198505131E-13, -1.229545386343942402E-14, 100.3999999999999915 ) ) ;
#185 = CARTESIAN_POINT ( 'NONE',  ( 5.586370142149013368E-14, 2.632078418571556872E-32, 16.00000000000000000 ) ) ;
#186 = APPROVAL ( #74, 'UNSPECIFIED' ) ;
#187 = DIRECTION ( 'NONE',  ( -4.275831445896958607E-31, -1.000000000000000000, -1.224646799147353207E-16 ) ) ;
#188 = EDGE_LOOP ( 'NONE', ( #19 ) ) ;
#189 = CONICAL_SURFACE ( 'NONE', #83, 3.510000000000000231, 0.5235987755983011471 ) ;
#190 = CARTESIAN_POINT ( 'NONE',  ( 1.396592535537253342E-15, 3.510000000000000231, 0.3999999999999999667 ) ) ;
#191 = DATE_AND_TIME ( #197, #176 ) ;
#192 = EDGE_LOOP ( 'NONE', ( #210 ) ) ;
#193 = PERSON_AND_ORGANIZATION_ROLE ( 'creator' ) ;
#194 = ORIENTED_EDGE ( 'NONE', *, *, #79, .T. ) ;
#195 = CC_DESIGN_DATE_AND_TIME_ASSIGNMENT ( #25, #128, ( #32 ) ) ;
#196 = PERSON_AND_ORGANIZATION ( #140, #199 ) ;
#197 = CALENDAR_DATE ( 2023, 28, 9 ) ;
#198 = MECHANICAL_CONTEXT ( 'NONE', #10, 'mechanical' ) ;
#199 = ORGANIZATION ( 'UNSPECIFIED', 'UNSPECIFIED', '' ) ;
#200 = DIRECTION ( 'NONE',  ( 3.491481338843133355E-15, -1.224646799147353207E-16, 1.000000000000000000 ) ) ;
#201 = FACE_OUTER_BOUND ( 'NONE', #126, .T. ) ;
#202 = LOCAL_TIME ( 15, 33, 16.00000000000000000, #121 ) ;
#203 = CARTESIAN_POINT ( 'NONE',  ( 3.526396152231565067E-13, -1.236893267138826732E-14, 101.0000000000000000 ) ) ;
#204 = DIRECTION ( 'NONE',  ( -3.491481338843133355E-15, 1.224646799147353207E-16, -1.000000000000000000 ) ) ;
#205 = ADVANCED_FACE ( 'NONE', ( #70, #239 ), #16, .T. ) ;
#206 = VERTEX_POINT ( 'NONE', #242 ) ;
#207 = CLOSED_SHELL ( 'NONE', ( #102, #139, #115, #86 ) ) ;
#208 = DIRECTION ( 'NONE',  ( -3.491481338843133355E-15, 1.224646799147353207E-16, -1.000000000000000000 ) ) ;
#209 = COORDINATED_UNIVERSAL_TIME_OFFSET ( 1, 0, .AHEAD. ) ;
#210 = ORIENTED_EDGE ( 'NONE', *, *, #91, .F. ) ;
#211 = CARTESIAN_POINT ( 'NONE',  ( 0.000000000000000000, 0.000000000000000000, 0.000000000000000000 ) ) ;
#212 = ADVANCED_FACE ( 'NONE', ( #2 ), #167, .F. ) ;
#213 = FACE_OUTER_BOUND ( 'NONE', #119, .T. ) ;
#214 = AXIS2_PLACEMENT_3D ( 'NONE', #13, #200, #64 ) ;
#215 = APPROVAL_ROLE ( '' ) ;
#216 = APPROVAL_PERSON_ORGANIZATION ( #61, #186, #142 ) ;
#217 = DIRECTION ( 'NONE',  ( -3.491481338843133355E-15, 1.224646799147353207E-16, -1.000000000000000000 ) ) ;
#218 = AXIS2_PLACEMENT_3D ( 'NONE', #51, #92, #222 ) ;
#219 = DIRECTION ( 'NONE',  ( -3.491481338843133355E-15, 1.224646799147353207E-16, -1.000000000000000000 ) ) ;
#220 = LOCAL_TIME ( 15, 33, 16.00000000000000000, #22 ) ;
#221 = FACE_BOUND ( 'NONE', #23, .T. ) ;
#222 = DIRECTION ( 'NONE',  ( 0.000000000000000000, 1.000000000000000000, 0.000000000000000000 ) ) ;
#223 = DIRECTION ( 'NONE',  ( -3.491481338843133355E-15, 1.224646799147353207E-16, -1.000000000000000000 ) ) ;
#224 = APPROVAL_PERSON_ORGANIZATION ( #60, #237, #215 ) ;
#225 = DIRECTION ( 'NONE',  ( 0.000000000000000000, 1.000000000000000000, 0.000000000000000000 ) ) ;
#226 = PERSON_AND_ORGANIZATION_ROLE ( 'classification_officer' ) ;
#227 = DIRECTION ( 'NONE',  ( -3.491481338843133355E-15, 1.224646799147353207E-16, -1.000000000000000000 ) ) ;
#228 = PERSON_AND_ORGANIZATION_ROLE ( 'design_supplier' ) ;
#229 = EDGE_LOOP ( 'NONE', ( #137 ) ) ;
#230 = APPROVAL_DATE_TIME ( #191, #122 ) ;
#231 = DESIGN_CONTEXT ( 'detailed design', #96, 'design' ) ;
#232 = LOCAL_TIME ( 15, 33, 16.00000000000000000, #209 ) ;
#233 = DIRECTION ( 'NONE',  ( 0.000000000000000000, 1.000000000000000000, 0.000000000000000000 ) ) ;
#234 = DIRECTION ( 'NONE',  ( -3.491481338843133355E-15, 1.224646799147353207E-16, -1.000000000000000000 ) ) ;
#235 = FACE_OUTER_BOUND ( 'NONE', #95, .T. ) ;
#236 = DIRECTION ( 'NONE',  ( 3.491481338843133355E-15, -1.224646799147353207E-16, 1.000000000000000000 ) ) ;
#237 = APPROVAL ( #159, 'UNSPECIFIED' ) ;
#238 = CARTESIAN_POINT ( 'NONE',  ( -1.329783579673953428E-30, 4.664252924078374533E-32, -3.808651545348266204E-16 ) ) ;
#239 = FACE_OUTER_BOUND ( 'NONE', #229, .T. ) ;
#240 = VERTEX_POINT ( 'NONE', #113 ) ;
#241 = AXIS2_PLACEMENT_3D ( 'NONE', #149, #217, #63 ) ;
#242 = CARTESIAN_POINT ( 'NONE',  ( 3.505447264198505131E-13, 2.999999999999990674, 100.3999999999999915 ) ) ;
#243 = VERTEX_POINT ( 'NONE', #33 ) ;
ENDSEC;
END-ISO-10303-21;
