ISO-10303-21;
HEADER;
FILE_DESCRIPTION (( 'STEP AP203' ),
    '1' );
FILE_NAME ('342133.step',
    '2023-09-28T13:33:15',
    ( '' ),
    ( '' ),
    'SwSTEP 2.0',
    'SolidWorks 2022',
    '' );
FILE_SCHEMA (( 'CONFIG_CONTROL_DESIGN' ));
ENDSEC;

DATA;
#1 = DIRECTION ( 'NONE',  ( 4.275831445896958607E-31, 1.000000000000000000, 1.224646799147353207E-16 ) ) ;
#2 = DIRECTION ( 'NONE',  ( -3.491481338843133355E-15, 1.224646799147353207E-16, -1.000000000000000000 ) ) ;
#3 = CIRCLE ( 'NONE', #118, 2.999999999999990230 ) ;
#4 = CARTESIAN_POINT ( 'NONE',  ( 3.526396152231565067E-13, 1.799711739194212982E-32, 101.0000000000000000 ) ) ;
#5 = PRODUCT_DEFINITION_SHAPE ( 'NONE', 'NONE',  #225 ) ;
#6 = ADVANCED_FACE ( 'NONE', ( #127 ), #205, .F. ) ;
#7 = AXIS2_PLACEMENT_3D ( 'NONE', #233, #66, #13 ) ;
#8 = PERSON ( 'UNSPECIFIED', 'UNSPECIFIED', 'UNSPECIFIED', ('UNSPECIFIED'), ('UNSPECIFIED'), ('UNSPECIFIED') ) ;
#9 = CARTESIAN_POINT ( 'NONE',  ( 1.396592535537252553E-15, 3.504999999999999893, 0.3999999999999997446 ) ) ;
#10 = EDGE_LOOP ( 'NONE', ( #56 ) ) ;
#11 = FACE_OUTER_BOUND ( 'NONE', #146, .T. ) ;
#12 = CIRCLE ( 'NONE', #144, 3.505000000000000338 ) ;
#13 = DIRECTION ( 'NONE',  ( 0.000000000000000000, 1.000000000000000000, 0.000000000000000000 ) ) ;
#14 = ORIENTED_EDGE ( 'NONE', *, *, #28, .F. ) ;
#15 = APPROVAL_DATE_TIME ( #192, #18 ) ;
#16 = DIRECTION ( 'NONE',  ( 3.491481338843133355E-15, -1.224646799147353207E-16, 1.000000000000000000 ) ) ;
#17 = APPROVAL_ROLE ( '' ) ;
#18 = APPROVAL ( #115, 'UNSPECIFIED' ) ;
#19 = APPROVAL_ROLE ( '' ) ;
#20 = CARTESIAN_POINT ( 'NONE',  ( 0.000000000000000000, 0.000000000000000000, 0.000000000000000000 ) ) ;
#21 = PERSON_AND_ORGANIZATION_ROLE ( 'creator' ) ;
#22 = CARTESIAN_POINT ( 'NONE',  ( -1.327645663951004956E-30, 4.656754125165065738E-32, -3.802528311352529821E-16 ) ) ;
#23 = SHAPE_DEFINITION_REPRESENTATION ( #5, #89 ) ;
#24 = DIRECTION ( 'NONE',  ( -4.275831445896958607E-31, -1.000000000000000000, -1.224646799147353207E-16 ) ) ;
#25 = CLOSED_SHELL ( 'NONE', ( #6, #55, #47, #182, #141 ) ) ;
#26 = DIRECTION ( 'NONE',  ( -3.491481338843133355E-15, 1.224646799147353207E-16, -1.000000000000000000 ) ) ;
#27 = DIRECTION ( 'NONE',  ( -3.491481338843133355E-15, 1.224646799147353207E-16, -1.000000000000000000 ) ) ;
#28 = EDGE_CURVE ( 'NONE', #49, #49, #12, .T. ) ;
#29 = CONICAL_SURFACE ( 'NONE', #197, 3.104999999999998206, 0.7853981633974504994 ) ;
#30 = CARTESIAN_POINT ( 'NONE',  ( 5.586370142149013368E-14, 2.628329019114902474E-32, 16.00000000000000000 ) ) ;
#31 = APPROVAL ( #73, 'UNSPECIFIED' ) ;
#32 = LOCAL_TIME ( 15, 33, 15.00000000000000000, #168 ) ;
#33 = DIRECTION ( 'NONE',  ( 0.000000000000000000, 1.000000000000000000, 0.000000000000000000 ) ) ;
#34 = DIRECTION ( 'NONE',  ( -3.491481338843133355E-15, 1.224646799147353207E-16, -1.000000000000000000 ) ) ;
#35 = ORIENTED_EDGE ( 'NONE', *, *, #219, .F. ) ;
#36 = AXIS2_PLACEMENT_3D ( 'NONE', #4, #157, #228 ) ;
#37 = PERSON_AND_ORGANIZATION ( #8, #102 ) ;
#38 = LOCAL_TIME ( 15, 33, 15.00000000000000000, #39 ) ;
#39 = COORDINATED_UNIVERSAL_TIME_OFFSET ( 1, 0, .AHEAD. ) ;
#40 = ADVANCED_FACE ( 'NONE', ( #11, #95 ), #29, .T. ) ;
#41 = DIRECTION ( 'NONE',  ( -4.275831445896958607E-31, -1.000000000000000000, -1.224646799147353207E-16 ) ) ;
#42 = PERSON_AND_ORGANIZATION_ROLE ( 'creator' ) ;
#43 =( NAMED_UNIT ( * ) SI_UNIT ( $, .STERADIAN. ) SOLID_ANGLE_UNIT ( ) );
#44 = CC_DESIGN_SECURITY_CLASSIFICATION ( #120, ( #199 ) ) ;
#45 = PRODUCT_RELATED_PRODUCT_CATEGORY ( 'detail', '', ( #177 ) ) ;
#46 = CARTESIAN_POINT ( 'NONE',  ( 3.505447264198505131E-13, -1.229545386343942402E-14, 100.3999999999999915 ) ) ;
#47 = ADVANCED_FACE ( 'NONE', ( #79, #78 ), #195, .T. ) ;
#48 =( NAMED_UNIT ( * ) PLANE_ANGLE_UNIT ( ) SI_UNIT ( $, .RADIAN. ) );
#49 = VERTEX_POINT ( 'NONE', #239 ) ;
#50 = APPLICATION_CONTEXT ( 'configuration controlled 3d designs of mechanical parts and assemblies' ) ;
#51 = MANIFOLD_SOLID_BREP ( 'Corps-Déplacer/Copier1[1]', #25 ) ;
#52 = DIRECTION ( 'NONE',  ( -4.275831445896958607E-31, -1.000000000000000000, -1.224646799147353207E-16 ) ) ;
#53 = DIRECTION ( 'NONE',  ( 0.000000000000000000, 1.000000000000000000, 0.000000000000000000 ) ) ;
#54 = VERTEX_POINT ( 'NONE', #215 ) ;
#55 = ADVANCED_FACE ( 'NONE', ( #169, #173 ), #99, .T. ) ;
#56 = ORIENTED_EDGE ( 'NONE', *, *, #70, .T. ) ;
#57 = APPROVAL_DATE_TIME ( #186, #31 ) ;
#58 = PERSON_AND_ORGANIZATION ( #8, #102 ) ;
#59 = DIRECTION ( 'NONE',  ( 4.275831445896958607E-31, 1.000000000000000000, 1.224646799147353207E-16 ) ) ;
#60 = CALENDAR_DATE ( 2023, 28, 9 ) ;
#61 = CARTESIAN_POINT ( 'NONE',  ( 1.396592535537250976E-15, -4.898587196589404447E-17, 0.3999999999999993006 ) ) ;
#62 = LOCAL_TIME ( 15, 33, 15.00000000000000000, #208 ) ;
#63 = APPLICATION_CONTEXT ( 'configuration controlled 3d designs of mechanical parts and assemblies' ) ;
#64 = LOCAL_TIME ( 15, 33, 15.00000000000000000, #128 ) ;
#65 = VERTEX_POINT ( 'NONE', #68 ) ;
#66 = DIRECTION ( 'NONE',  ( -3.491481338843133355E-15, 1.224646799147353207E-16, -1.000000000000000000 ) ) ;
#67 = CC_DESIGN_DATE_AND_TIME_ASSIGNMENT ( #151, #202, ( #120 ) ) ;
#68 = CARTESIAN_POINT ( 'NONE',  ( 3.526396152231565067E-13, 2.399999999999990585, 101.0000000000000000 ) ) ;
#69 = EDGE_LOOP ( 'NONE', ( #74 ) ) ;
#70 = EDGE_CURVE ( 'NONE', #54, #54, #185, .T. ) ;
#71 = CARTESIAN_POINT ( 'NONE',  ( 0.000000000000000000, 0.000000000000000000, 0.000000000000000000 ) ) ;
#72 = AXIS2_PLACEMENT_3D ( 'NONE', #238, #142, #213 ) ;
#73 = APPROVAL_STATUS ( 'not_yet_approved' ) ;
#74 = ORIENTED_EDGE ( 'NONE', *, *, #165, .T. ) ;
#75 = FACE_OUTER_BOUND ( 'NONE', #222, .T. ) ;
#76 = PERSON_AND_ORGANIZATION ( #8, #102 ) ;
#77 = PLANE ( 'NONE',  #109 ) ;
#78 = FACE_OUTER_BOUND ( 'NONE', #69, .T. ) ;
#79 = FACE_OUTER_BOUND ( 'NONE', #145, .T. ) ;
#80 = CC_DESIGN_DATE_AND_TIME_ASSIGNMENT ( #164, #189, ( #225 ) ) ;
#81 = DIRECTION ( 'NONE',  ( 0.000000000000000000, 1.000000000000000000, 0.000000000000000000 ) ) ;
#82 = AXIS2_PLACEMENT_3D ( 'NONE', #61, #156, #229 ) ;
#83 = EDGE_CURVE ( 'NONE', #123, #123, #3, .T. ) ;
#84 = FACE_OUTER_BOUND ( 'NONE', #163, .T. ) ;
#85 = CONICAL_SURFACE ( 'NONE', #7, 2.400000000000003464, 0.7853981633974335130 ) ;
#86 = VERTEX_POINT ( 'NONE', #143 ) ;
#87 = ORIENTED_EDGE ( 'NONE', *, *, #138, .T. ) ;
#88 = AXIS2_PLACEMENT_3D ( 'NONE', #114, #209, #97 ) ;
#89 = ADVANCED_BREP_SHAPE_REPRESENTATION ( '342133', ( #51, #211, #212 ), #124 ) ;
#90 = EDGE_LOOP ( 'NONE', ( #107 ) ) ;
#91 = CALENDAR_DATE ( 2023, 28, 9 ) ;
#92 = CARTESIAN_POINT ( 'NONE',  ( 3.526396152231565067E-13, -1.236893267138826732E-14, 101.0000000000000000 ) ) ;
#93 = PERSON_AND_ORGANIZATION ( #8, #102 ) ;
#94 = CC_DESIGN_PERSON_AND_ORGANIZATION_ASSIGNMENT ( #58, #21, ( #199 ) ) ;
#95 = FACE_BOUND ( 'NONE', #153, .T. ) ;
#96 = PERSON_AND_ORGANIZATION ( #8, #102 ) ;
#97 = DIRECTION ( 'NONE',  ( 0.000000000000000000, 1.000000000000000000, 0.000000000000000000 ) ) ;
#98 = CLOSED_SHELL ( 'NONE', ( #203, #178, #116, #40 ) ) ;
#99 = CONICAL_SURFACE ( 'NONE', #88, 3.505000000000000338, 0.5235987755983009251 ) ;
#100 = DIRECTION ( 'NONE',  ( 0.000000000000000000, 1.000000000000000000, 0.000000000000000000 ) ) ;
#101 = AXIS2_PLACEMENT_3D ( 'NONE', #112, #16, #41 ) ;
#102 = ORGANIZATION ( 'UNSPECIFIED', 'UNSPECIFIED', '' ) ;
#103 = EDGE_CURVE ( 'NONE', #180, #180, #191, .T. ) ;
#104 = CARTESIAN_POINT ( 'NONE',  ( 5.891765007313040674E-14, 2.999999999999988010, 16.87468565782229746 ) ) ;
#105 = EDGE_LOOP ( 'NONE', ( #207 ) ) ;
#106 = CARTESIAN_POINT ( 'NONE',  ( 5.586370142149013368E-14, -1.959434878635765131E-15, 16.00000000000000000 ) ) ;
#107 = ORIENTED_EDGE ( 'NONE', *, *, #103, .F. ) ;
#108 = FACE_OUTER_BOUND ( 'NONE', #129, .T. ) ;
#109 = AXIS2_PLACEMENT_3D ( 'NONE', #193, #139, #119 ) ;
#110 = PERSON_AND_ORGANIZATION_ROLE ( 'design_owner' ) ;
#111 = EDGE_LOOP ( 'NONE', ( #126 ) ) ;
#112 = CARTESIAN_POINT ( 'NONE',  ( 5.586370142149013368E-14, 2.628329019114902474E-32, 16.00000000000000000 ) ) ;
#113 = PERSON_AND_ORGANIZATION ( #8, #102 ) ;
#114 = CARTESIAN_POINT ( 'NONE',  ( 5.586370142149013368E-14, -1.959434878635765131E-15, 16.00000000000000000 ) ) ;
#115 = APPROVAL_STATUS ( 'not_yet_approved' ) ;
#116 = ADVANCED_FACE ( 'NONE', ( #158 ), #77, .T. ) ;
#117 = DIRECTION ( 'NONE',  ( -3.491481338843133355E-15, 1.224646799147353207E-16, -1.000000000000000000 ) ) ;
#118 = AXIS2_PLACEMENT_3D ( 'NONE', #132, #2, #81 ) ;
#119 = DIRECTION ( 'NONE',  ( 4.275831445896958607E-31, 1.000000000000000000, 1.224646799147353207E-16 ) ) ;
#120 = SECURITY_CLASSIFICATION ( '', '', #166 ) ;
#121 = FACE_OUTER_BOUND ( 'NONE', #90, .T. ) ;
#122 = CC_DESIGN_PERSON_AND_ORGANIZATION_ASSIGNMENT ( #96, #42, ( #225 ) ) ;
#123 = VERTEX_POINT ( 'NONE', #104 ) ;
#124 =( GEOMETRIC_REPRESENTATION_CONTEXT ( 3 ) GLOBAL_UNCERTAINTY_ASSIGNED_CONTEXT ( ( #196 ) ) GLOBAL_UNIT_ASSIGNED_CONTEXT ( ( #217, #48, #43 ) ) REPRESENTATION_CONTEXT ( 'NONE', 'WORKASPACE' ) );
#125 = VERTEX_POINT ( 'NONE', #198 ) ;
#126 = ORIENTED_EDGE ( 'NONE', *, *, #219, .T. ) ;
#127 = FACE_OUTER_BOUND ( 'NONE', #105, .T. ) ;
#128 = COORDINATED_UNIVERSAL_TIME_OFFSET ( 1, 0, .AHEAD. ) ;
#129 = EDGE_LOOP ( 'NONE', ( #216 ) ) ;
#130 = ORIENTED_EDGE ( 'NONE', *, *, #70, .F. ) ;
#131 = APPLICATION_PROTOCOL_DEFINITION ( 'international standard', 'config_control_design', 1994, #50 ) ;
#132 = CARTESIAN_POINT ( 'NONE',  ( 5.891765007313040674E-14, -2.066552977746982371E-15, 16.87468565782229746 ) ) ;
#133 = CC_DESIGN_APPROVAL ( #200, ( #199 ) ) ;
#134 = APPLICATION_PROTOCOL_DEFINITION ( 'international standard', 'config_control_design', 1994, #63 ) ;
#135 = CC_DESIGN_PERSON_AND_ORGANIZATION_ASSIGNMENT ( #93, #187, ( #199 ) ) ;
#136 = CARTESIAN_POINT ( 'NONE',  ( -1.327645663951004956E-30, 4.656754125165065738E-32, -3.802528311352529821E-16 ) ) ;
#137 = AXIS2_PLACEMENT_3D ( 'NONE', #106, #34, #33 ) ;
#138 = EDGE_CURVE ( 'NONE', #65, #65, #140, .T. ) ;
#139 = DIRECTION ( 'NONE',  ( -3.491481338843133355E-15, 1.224646799147353207E-16, -1.000000000000000000 ) ) ;
#140 = CIRCLE ( 'NONE', #150, 2.400000000000003464 ) ;
#141 = ADVANCED_FACE ( 'NONE', ( #75 ), #210, .F. ) ;
#142 = DIRECTION ( 'NONE',  ( -3.491481338843133355E-15, 1.224646799147353207E-16, -1.000000000000000000 ) ) ;
#143 = CARTESIAN_POINT ( 'NONE',  ( 3.505447264198505131E-13, 2.999999999999990674, 100.3999999999999915 ) ) ;
#144 = AXIS2_PLACEMENT_3D ( 'NONE', #162, #237, #53 ) ;
#145 = EDGE_LOOP ( 'NONE', ( #181 ) ) ;
#146 = EDGE_LOOP ( 'NONE', ( #201 ) ) ;
#147 = EDGE_LOOP ( 'NONE', ( #87 ) ) ;
#148 = PERSON_AND_ORGANIZATION ( #8, #102 ) ;
#149 = EDGE_LOOP ( 'NONE', ( #14 ) ) ;
#150 = AXIS2_PLACEMENT_3D ( 'NONE', #92, #26, #100 ) ;
#151 = DATE_AND_TIME ( #243, #64 ) ;
#152 = CC_DESIGN_PERSON_AND_ORGANIZATION_ASSIGNMENT ( #37, #170, ( #120 ) ) ;
#153 = EDGE_LOOP ( 'NONE', ( #130 ) ) ;
#154 = CALENDAR_DATE ( 2023, 28, 9 ) ;
#155 = APPROVAL_ROLE ( '' ) ;
#156 = DIRECTION ( 'NONE',  ( -3.491481338843133355E-15, 1.224646799147353207E-16, -1.000000000000000000 ) ) ;
#157 = DIRECTION ( 'NONE',  ( -3.491481338843133355E-15, 1.224646799147353207E-16, -1.000000000000000000 ) ) ;
#158 = FACE_OUTER_BOUND ( 'NONE', #10, .T. ) ;
#159 = AXIS2_PLACEMENT_3D ( 'NONE', #20, #171, #59 ) ;
#160 = AXIS2_PLACEMENT_3D ( 'NONE', #22, #117, #1 ) ;
#161 = PLANE ( 'NONE',  #231 ) ;
#162 = CARTESIAN_POINT ( 'NONE',  ( 5.586370142149013368E-14, -1.959434878635765131E-15, 16.00000000000000000 ) ) ;
#163 = EDGE_LOOP ( 'NONE', ( #35 ) ) ;
#164 = DATE_AND_TIME ( #154, #62 ) ;
#165 = EDGE_CURVE ( 'NONE', #86, #86, #174, .T. ) ;
#166 = SECURITY_CLASSIFICATION_LEVEL ( 'unclassified' ) ;
#167 = CC_DESIGN_APPROVAL ( #31, ( #225 ) ) ;
#168 = COORDINATED_UNIVERSAL_TIME_OFFSET ( 1, 0, .AHEAD. ) ;
#169 = FACE_BOUND ( 'NONE', #184, .T. ) ;
#170 = PERSON_AND_ORGANIZATION_ROLE ( 'classification_officer' ) ;
#171 = DIRECTION ( 'NONE',  ( -3.491481338843133355E-15, 1.224646799147353207E-16, -1.000000000000000000 ) ) ;
#172 = DESIGN_CONTEXT ( 'detailed design', #63, 'design' ) ;
#173 = FACE_OUTER_BOUND ( 'NONE', #149, .T. ) ;
#174 = CIRCLE ( 'NONE', #214, 3.000000000000002665 ) ;
#175 = APPROVAL_PERSON_ORGANIZATION ( #76, #18, #155 ) ;
#176 = DIRECTION ( 'NONE',  ( 0.000000000000000000, 1.000000000000000000, 0.000000000000000000 ) ) ;
#177 = PRODUCT ( '342133', '342133', '', ( #220 ) ) ;
#178 = ADVANCED_FACE ( 'NONE', ( #84 ), #161, .T. ) ;
#179 = CYLINDRICAL_SURFACE ( 'NONE', #72, 3.505000000000000338 ) ;
#180 = VERTEX_POINT ( 'NONE', #9 ) ;
#181 = ORIENTED_EDGE ( 'NONE', *, *, #83, .F. ) ;
#182 = ADVANCED_FACE ( 'NONE', ( #108, #236 ), #85, .T. ) ;
#183 = FACE_OUTER_BOUND ( 'NONE', #111, .T. ) ;
#184 = EDGE_LOOP ( 'NONE', ( #188 ) ) ;
#185 = CIRCLE ( 'NONE', #160, 3.104999999999998206 ) ;
#186 = DATE_AND_TIME ( #240, #32 ) ;
#187 = PERSON_AND_ORGANIZATION_ROLE ( 'design_supplier' ) ;
#188 = ORIENTED_EDGE ( 'NONE', *, *, #83, .T. ) ;
#189 = DATE_TIME_ROLE ( 'creation_date' ) ;
#190 = DIRECTION ( 'NONE',  ( 3.491481338843133355E-15, -1.224646799147353207E-16, 1.000000000000000000 ) ) ;
#191 = CIRCLE ( 'NONE', #82, 3.504999999999999893 ) ;
#192 = DATE_AND_TIME ( #60, #230 ) ;
#193 = CARTESIAN_POINT ( 'NONE',  ( -6.638228319755024782E-31, 2.328377062582532869E-32, -1.901264155676264911E-16 ) ) ;
#194 = CIRCLE ( 'NONE', #137, 3.505000000000000338 ) ;
#195 = CYLINDRICAL_SURFACE ( 'NONE', #159, 2.999999999999996447 ) ;
#196 = UNCERTAINTY_MEASURE_WITH_UNIT (LENGTH_MEASURE( 1.000000000000000082E-05 ), #217, 'distance_accuracy_value', 'NONE');
#197 = AXIS2_PLACEMENT_3D ( 'NONE', #136, #190, #24 ) ;
#198 = CARTESIAN_POINT ( 'NONE',  ( 5.586370142149013368E-14, 3.504999999999998117, 16.00000000000000000 ) ) ;
#199 = PRODUCT_DEFINITION_FORMATION_WITH_SPECIFIED_SOURCE ( 'ANY', '', #177, .NOT_KNOWN. ) ;
#200 = APPROVAL ( #221, 'UNSPECIFIED' ) ;
#201 = ORIENTED_EDGE ( 'NONE', *, *, #103, .T. ) ;
#202 = DATE_TIME_ROLE ( 'classification_date' ) ;
#203 = ADVANCED_FACE ( 'NONE', ( #183, #121 ), #179, .T. ) ;
#204 = DIRECTION ( 'NONE',  ( 1.000000000000000000, 0.000000000000000000, 0.000000000000000000 ) ) ;
#205 = PLANE ( 'NONE',  #101 ) ;
#206 = PERSON_AND_ORGANIZATION ( #8, #102 ) ;
#207 = ORIENTED_EDGE ( 'NONE', *, *, #28, .T. ) ;
#208 = COORDINATED_UNIVERSAL_TIME_OFFSET ( 1, 0, .AHEAD. ) ;
#209 = DIRECTION ( 'NONE',  ( -3.491481338843133355E-15, 1.224646799147353207E-16, -1.000000000000000000 ) ) ;
#210 = PLANE ( 'NONE',  #36 ) ;
#211 = MANIFOLD_SOLID_BREP ( 'Corps-Déplacer/Copier1[2]', #98 ) ;
#212 = AXIS2_PLACEMENT_3D ( 'NONE', #71, #223, #204 ) ;
#213 = DIRECTION ( 'NONE',  ( 4.275831445896958607E-31, 1.000000000000000000, 1.224646799147353207E-16 ) ) ;
#214 = AXIS2_PLACEMENT_3D ( 'NONE', #46, #27, #176 ) ;
#215 = CARTESIAN_POINT ( 'NONE',  ( 0.000000000000000000, 3.104999999999998206, 0.000000000000000000 ) ) ;
#216 = ORIENTED_EDGE ( 'NONE', *, *, #165, .F. ) ;
#217 =( LENGTH_UNIT ( ) NAMED_UNIT ( * ) SI_UNIT ( .MILLI., .METRE. ) );
#218 = ORIENTED_EDGE ( 'NONE', *, *, #138, .F. ) ;
#219 = EDGE_CURVE ( 'NONE', #125, #125, #194, .T. ) ;
#220 = MECHANICAL_CONTEXT ( 'NONE', #50, 'mechanical' ) ;
#221 = APPROVAL_STATUS ( 'not_yet_approved' ) ;
#222 = EDGE_LOOP ( 'NONE', ( #218 ) ) ;
#223 = DIRECTION ( 'NONE',  ( 0.000000000000000000, 0.000000000000000000, 1.000000000000000000 ) ) ;
#224 = APPROVAL_DATE_TIME ( #242, #200 ) ;
#225 = PRODUCT_DEFINITION ( 'UNKNOWN', '', #199, #172 ) ;
#226 = COORDINATED_UNIVERSAL_TIME_OFFSET ( 1, 0, .AHEAD. ) ;
#227 = APPROVAL_PERSON_ORGANIZATION ( #113, #200, #19 ) ;
#228 = DIRECTION ( 'NONE',  ( 4.275831445896958607E-31, 1.000000000000000000, 1.224646799147353207E-16 ) ) ;
#229 = DIRECTION ( 'NONE',  ( 4.395845807445902296E-31, 1.000000000000000000, 1.237320596274470168E-16 ) ) ;
#230 = LOCAL_TIME ( 15, 33, 15.00000000000000000, #226 ) ;
#231 = AXIS2_PLACEMENT_3D ( 'NONE', #30, #235, #52 ) ;
#232 = CC_DESIGN_APPROVAL ( #18, ( #120 ) ) ;
#233 = CARTESIAN_POINT ( 'NONE',  ( 3.526396152231565067E-13, -1.236893267138826732E-14, 101.0000000000000000 ) ) ;
#234 = CC_DESIGN_PERSON_AND_ORGANIZATION_ASSIGNMENT ( #148, #110, ( #177 ) ) ;
#235 = DIRECTION ( 'NONE',  ( 3.491481338843133355E-15, -1.224646799147353207E-16, 1.000000000000000000 ) ) ;
#236 = FACE_BOUND ( 'NONE', #147, .T. ) ;
#237 = DIRECTION ( 'NONE',  ( -3.491481338843133355E-15, 1.224646799147353207E-16, -1.000000000000000000 ) ) ;
#238 = CARTESIAN_POINT ( 'NONE',  ( 0.000000000000000000, 0.000000000000000000, 0.000000000000000000 ) ) ;
#239 = CARTESIAN_POINT ( 'NONE',  ( 5.586370142149013368E-14, 3.504999999999998117, 16.00000000000000000 ) ) ;
#240 = CALENDAR_DATE ( 2023, 28, 9 ) ;
#241 = APPROVAL_PERSON_ORGANIZATION ( #206, #31, #17 ) ;
#242 = DATE_AND_TIME ( #91, #38 ) ;
#243 = CALENDAR_DATE ( 2023, 28, 9 ) ;
ENDSEC;
END-ISO-10303-21;
