ISO-10303-21;
HEADER;
FILE_DESCRIPTION (( 'STEP AP203' ),
    '1' );
FILE_NAME ('342132.step',
    '2023-09-28T13:33:14',
    ( '' ),
    ( '' ),
    'SwSTEP 2.0',
    'SolidWorks 2022',
    '' );
FILE_SCHEMA (( 'CONFIG_CONTROL_DESIGN' ));
ENDSEC;

DATA;
#1 = EDGE_LOOP ( 'NONE', ( #119 ) ) ;
#2 = EDGE_LOOP ( 'NONE', ( #226 ) ) ;
#3 = AXIS2_PLACEMENT_3D ( 'NONE', #89, #66, #168 ) ;
#4 = LOCAL_TIME ( 15, 33, 14.00000000000000000, #137 ) ;
#5 = DIRECTION ( 'NONE',  ( -4.275831445896958607E-31, -1.000000000000000000, -1.224646799147353207E-16 ) ) ;
#6 = DIRECTION ( 'NONE',  ( -3.491481338843133355E-15, 1.224646799147353207E-16, -1.000000000000000000 ) ) ;
#7 = AXIS2_PLACEMENT_3D ( 'NONE', #104, #182, #227 ) ;
#8 = DATE_TIME_ROLE ( 'creation_date' ) ;
#9 = CARTESIAN_POINT ( 'NONE',  ( 0.000000000000000000, 0.000000000000000000, 0.000000000000000000 ) ) ;
#10 = DIRECTION ( 'NONE',  ( -3.491481338843133355E-15, 1.224646799147353207E-16, -1.000000000000000000 ) ) ;
#11 = AXIS2_PLACEMENT_3D ( 'NONE', #57, #130, #212 ) ;
#12 = CC_DESIGN_APPROVAL ( #31, ( #64 ) ) ;
#13 =( NAMED_UNIT ( * ) SI_UNIT ( $, .STERADIAN. ) SOLID_ANGLE_UNIT ( ) );
#14 = CC_DESIGN_PERSON_AND_ORGANIZATION_ASSIGNMENT ( #48, #82, ( #149 ) ) ;
#15 = COORDINATED_UNIVERSAL_TIME_OFFSET ( 1, 0, .AHEAD. ) ;
#16 = CC_DESIGN_DATE_AND_TIME_ASSIGNMENT ( #99, #8, ( #204 ) ) ;
#17 = ORIENTED_EDGE ( 'NONE', *, *, #140, .T. ) ;
#18 = FACE_OUTER_BOUND ( 'NONE', #184, .T. ) ;
#19 = EDGE_LOOP ( 'NONE', ( #67 ) ) ;
#20 = ORIENTED_EDGE ( 'NONE', *, *, #169, .F. ) ;
#21 = DIRECTION ( 'NONE',  ( 4.275831445896958607E-31, 1.000000000000000000, 1.224646799147353207E-16 ) ) ;
#22 = DIRECTION ( 'NONE',  ( 3.491481338843133355E-15, -1.224646799147353207E-16, 1.000000000000000000 ) ) ;
#23 = AXIS2_PLACEMENT_3D ( 'NONE', #109, #24, #5 ) ;
#24 = DIRECTION ( 'NONE',  ( 3.491481338843133355E-15, -1.224646799147353207E-16, 1.000000000000000000 ) ) ;
#25 = LOCAL_TIME ( 15, 33, 14.00000000000000000, #158 ) ;
#26 = DATE_AND_TIME ( #133, #25 ) ;
#27 = ADVANCED_FACE ( 'NONE', ( #103, #200 ), #166, .T. ) ;
#28 = VERTEX_POINT ( 'NONE', #30 ) ;
#29 =( NAMED_UNIT ( * ) PLANE_ANGLE_UNIT ( ) SI_UNIT ( $, .RADIAN. ) );
#30 = CARTESIAN_POINT ( 'NONE',  ( 5.586370142149013368E-14, 3.499999999999998224, 16.00000000000000000 ) ) ;
#31 = APPROVAL ( #95, 'UNSPECIFIED' ) ;
#32 = CYLINDRICAL_SURFACE ( 'NONE', #156, 2.999999999999996447 ) ;
#33 = DIRECTION ( 'NONE',  ( 4.275831445896958607E-31, 1.000000000000000000, 1.224646799147353207E-16 ) ) ;
#34 = CALENDAR_DATE ( 2023, 28, 9 ) ;
#35 = FACE_OUTER_BOUND ( 'NONE', #19, .T. ) ;
#36 = ADVANCED_FACE ( 'NONE', ( #35 ), #164, .T. ) ;
#37 = CARTESIAN_POINT ( 'NONE',  ( -1.325507748228056660E-30, 4.649255326251756942E-32, -3.796405077356793438E-16 ) ) ;
#38 = FACE_OUTER_BOUND ( 'NONE', #147, .T. ) ;
#39 = FACE_OUTER_BOUND ( 'NONE', #102, .T. ) ;
#40 = CIRCLE ( 'NONE', #229, 3.099999999999998757 ) ;
#41 = DIRECTION ( 'NONE',  ( -3.491481338843133355E-15, 1.224646799147353207E-16, -1.000000000000000000 ) ) ;
#42 = CARTESIAN_POINT ( 'NONE',  ( 1.396592535537254131E-15, 3.500000000000000444, 0.4000000000000001887 ) ) ;
#43 = CARTESIAN_POINT ( 'NONE',  ( 3.526396152231565067E-13, 2.399999999999990585, 101.0000000000000000 ) ) ;
#44 = EDGE_CURVE ( 'NONE', #28, #28, #219, .T. ) ;
#45 = ADVANCED_BREP_SHAPE_REPRESENTATION ( '342132', ( #234, #154, #111 ), #58 ) ;
#46 = CARTESIAN_POINT ( 'NONE',  ( 3.526396152231565067E-13, 1.799711739194212982E-32, 101.0000000000000000 ) ) ;
#47 = CALENDAR_DATE ( 2023, 28, 9 ) ;
#48 = PERSON_AND_ORGANIZATION ( #100, #151 ) ;
#49 = EDGE_LOOP ( 'NONE', ( #180 ) ) ;
#50 = CARTESIAN_POINT ( 'NONE',  ( 0.000000000000000000, 0.000000000000000000, 0.000000000000000000 ) ) ;
#51 = EDGE_LOOP ( 'NONE', ( #84 ) ) ;
#52 = PRODUCT_RELATED_PRODUCT_CATEGORY ( 'detail', '', ( #60 ) ) ;
#53 = PERSON_AND_ORGANIZATION ( #100, #151 ) ;
#54 = ORIENTED_EDGE ( 'NONE', *, *, #140, .F. ) ;
#55 = DIRECTION ( 'NONE',  ( 0.000000000000000000, 1.000000000000000000, 0.000000000000000000 ) ) ;
#56 = PERSON_AND_ORGANIZATION ( #100, #151 ) ;
#57 = CARTESIAN_POINT ( 'NONE',  ( 3.505447264198505131E-13, -1.229545386343942402E-14, 100.3999999999999915 ) ) ;
#58 =( GEOMETRIC_REPRESENTATION_CONTEXT ( 3 ) GLOBAL_UNCERTAINTY_ASSIGNED_CONTEXT ( ( #125 ) ) GLOBAL_UNIT_ASSIGNED_CONTEXT ( ( #132, #29, #13 ) ) REPRESENTATION_CONTEXT ( 'NONE', 'WORKASPACE' ) );
#59 = APPROVAL ( #98, 'UNSPECIFIED' ) ;
#60 = PRODUCT ( '342132', '342132', '', ( #159 ) ) ;
#61 = DIRECTION ( 'NONE',  ( 4.275831445896958607E-31, 1.000000000000000000, 1.224646799147353207E-16 ) ) ;
#62 = VERTEX_POINT ( 'NONE', #97 ) ;
#63 = PERSON_AND_ORGANIZATION ( #100, #151 ) ;
#64 = SECURITY_CLASSIFICATION ( '', '', #118 ) ;
#65 = DATE_AND_TIME ( #34, #143 ) ;
#66 = DIRECTION ( 'NONE',  ( -3.491481338843133355E-15, 1.224646799147353207E-16, -1.000000000000000000 ) ) ;
#67 = ORIENTED_EDGE ( 'NONE', *, *, #169, .T. ) ;
#68 = ADVANCED_FACE ( 'NONE', ( #203, #124 ), #201, .T. ) ;
#69 = CARTESIAN_POINT ( 'NONE',  ( 0.000000000000000000, 0.000000000000000000, 0.000000000000000000 ) ) ;
#70 = EDGE_LOOP ( 'NONE', ( #17 ) ) ;
#71 = DIRECTION ( 'NONE',  ( -4.275831445896958607E-31, -1.000000000000000000, -1.224646799147353207E-16 ) ) ;
#72 = CLOSED_SHELL ( 'NONE', ( #131, #183, #127, #136, #196 ) ) ;
#73 = PLANE ( 'NONE',  #170 ) ;
#74 = VERTEX_POINT ( 'NONE', #42 ) ;
#75 = CIRCLE ( 'NONE', #11, 3.000000000000002665 ) ;
#76 = AXIS2_PLACEMENT_3D ( 'NONE', #116, #10, #134 ) ;
#77 = SHAPE_DEFINITION_REPRESENTATION ( #216, #45 ) ;
#78 = APPROVAL_DATE_TIME ( #199, #59 ) ;
#79 = DATE_AND_TIME ( #115, #190 ) ;
#80 = APPROVAL_PERSON_ORGANIZATION ( #217, #31, #214 ) ;
#81 = ORIENTED_EDGE ( 'NONE', *, *, #83, .T. ) ;
#82 = PERSON_AND_ORGANIZATION_ROLE ( 'design_supplier' ) ;
#83 = EDGE_CURVE ( 'NONE', #74, #74, #178, .T. ) ;
#84 = ORIENTED_EDGE ( 'NONE', *, *, #232, .T. ) ;
#85 = AXIS2_PLACEMENT_3D ( 'NONE', #69, #145, #21 ) ;
#86 = AXIS2_PLACEMENT_3D ( 'NONE', #106, #22, #71 ) ;
#87 = DIRECTION ( 'NONE',  ( 3.491481338843133355E-15, -1.224646799147353207E-16, 1.000000000000000000 ) ) ;
#88 = EDGE_CURVE ( 'NONE', #215, #215, #90, .T. ) ;
#89 = CARTESIAN_POINT ( 'NONE',  ( 1.396592535537252553E-15, -4.898587196589409377E-17, 0.3999999999999997446 ) ) ;
#90 = CIRCLE ( 'NONE', #225, 3.500000000000000444 ) ;
#91 = CC_DESIGN_DATE_AND_TIME_ASSIGNMENT ( #26, #135, ( #64 ) ) ;
#92 = CIRCLE ( 'NONE', #76, 2.999999999999990230 ) ;
#93 = APPROVAL_DATE_TIME ( #79, #31 ) ;
#94 = DIRECTION ( 'NONE',  ( 1.000000000000000000, 0.000000000000000000, 0.000000000000000000 ) ) ;
#95 = APPROVAL_STATUS ( 'not_yet_approved' ) ;
#96 = APPLICATION_PROTOCOL_DEFINITION ( 'international standard', 'config_control_design', 1994, #176 ) ;
#97 = CARTESIAN_POINT ( 'NONE',  ( 5.888741295776763801E-14, 2.999999999999988010, 16.86602540378445525 ) ) ;
#98 = APPROVAL_STATUS ( 'not_yet_approved' ) ;
#99 = DATE_AND_TIME ( #220, #4 ) ;
#100 = PERSON ( 'UNSPECIFIED', 'UNSPECIFIED', 'UNSPECIFIED', ('UNSPECIFIED'), ('UNSPECIFIED'), ('UNSPECIFIED') ) ;
#101 = AXIS2_PLACEMENT_3D ( 'NONE', #37, #87, #105 ) ;
#102 = EDGE_LOOP ( 'NONE', ( #54 ) ) ;
#103 = FACE_OUTER_BOUND ( 'NONE', #205, .T. ) ;
#104 = CARTESIAN_POINT ( 'NONE',  ( -6.627538741140283300E-31, 2.324627663125878471E-32, -1.898202538678396719E-16 ) ) ;
#105 = DIRECTION ( 'NONE',  ( -4.275831445896958607E-31, -1.000000000000000000, -1.224646799147353207E-16 ) ) ;
#106 = CARTESIAN_POINT ( 'NONE',  ( 5.586370142149013368E-14, 2.624579619658248077E-32, 16.00000000000000000 ) ) ;
#107 = AXIS2_PLACEMENT_3D ( 'NONE', #171, #6, #193 ) ;
#108 = CONICAL_SURFACE ( 'NONE', #107, 2.400000000000003464, 0.7853981633974335130 ) ;
#109 = CARTESIAN_POINT ( 'NONE',  ( 5.586370142149013368E-14, 2.624579619658248077E-32, 16.00000000000000000 ) ) ;
#110 = DIRECTION ( 'NONE',  ( 4.275831445896958607E-31, 1.000000000000000000, 1.224646799147353207E-16 ) ) ;
#111 = AXIS2_PLACEMENT_3D ( 'NONE', #9, #114, #94 ) ;
#112 = DIRECTION ( 'NONE',  ( -3.491481338843133355E-15, 1.224646799147353207E-16, -1.000000000000000000 ) ) ;
#113 = PERSON_AND_ORGANIZATION_ROLE ( 'classification_officer' ) ;
#114 = DIRECTION ( 'NONE',  ( 0.000000000000000000, 0.000000000000000000, 1.000000000000000000 ) ) ;
#115 = CALENDAR_DATE ( 2023, 28, 9 ) ;
#116 = CARTESIAN_POINT ( 'NONE',  ( 5.888741295776763801E-14, -2.065492402508257721E-15, 16.86602540378445525 ) ) ;
#117 = CARTESIAN_POINT ( 'NONE',  ( 3.526396152231565067E-13, -1.236893267138826732E-14, 101.0000000000000000 ) ) ;
#118 = SECURITY_CLASSIFICATION_LEVEL ( 'unclassified' ) ;
#119 = ORIENTED_EDGE ( 'NONE', *, *, #224, .T. ) ;
#120 = CC_DESIGN_PERSON_AND_ORGANIZATION_ASSIGNMENT ( #155, #235, ( #60 ) ) ;
#121 = COORDINATED_UNIVERSAL_TIME_OFFSET ( 1, 0, .AHEAD. ) ;
#122 = DIRECTION ( 'NONE',  ( -3.491481338843133355E-15, 1.224646799147353207E-16, -1.000000000000000000 ) ) ;
#123 = ORIENTED_EDGE ( 'NONE', *, *, #232, .F. ) ;
#124 = FACE_BOUND ( 'NONE', #167, .T. ) ;
#125 = UNCERTAINTY_MEASURE_WITH_UNIT (LENGTH_MEASURE( 1.000000000000000082E-05 ), #132, 'distance_accuracy_value', 'NONE');
#126 = DIRECTION ( 'NONE',  ( 0.000000000000000000, 1.000000000000000000, 0.000000000000000000 ) ) ;
#127 = ADVANCED_FACE ( 'NONE', ( #18, #221 ), #32, .T. ) ;
#128 = PLANE ( 'NONE',  #86 ) ;
#129 = CONICAL_SURFACE ( 'NONE', #236, 3.500000000000000444, 0.5235987755983005920 ) ;
#130 = DIRECTION ( 'NONE',  ( -3.491481338843133355E-15, 1.224646799147353207E-16, -1.000000000000000000 ) ) ;
#131 = ADVANCED_FACE ( 'NONE', ( #210 ), #189, .F. ) ;
#132 =( LENGTH_UNIT ( ) NAMED_UNIT ( * ) SI_UNIT ( .MILLI., .METRE. ) );
#133 = CALENDAR_DATE ( 2023, 28, 9 ) ;
#134 = DIRECTION ( 'NONE',  ( 0.000000000000000000, 1.000000000000000000, 0.000000000000000000 ) ) ;
#135 = DATE_TIME_ROLE ( 'classification_date' ) ;
#136 = ADVANCED_FACE ( 'NONE', ( #39, #148 ), #108, .T. ) ;
#137 = COORDINATED_UNIVERSAL_TIME_OFFSET ( 1, 0, .AHEAD. ) ;
#138 = AXIS2_PLACEMENT_3D ( 'NONE', #117, #174, #153 ) ;
#139 = PERSON_AND_ORGANIZATION_ROLE ( 'creator' ) ;
#140 = EDGE_CURVE ( 'NONE', #175, #175, #75, .T. ) ;
#141 = DIRECTION ( 'NONE',  ( 0.000000000000000000, 1.000000000000000000, 0.000000000000000000 ) ) ;
#142 = CARTESIAN_POINT ( 'NONE',  ( 5.586370142149013368E-14, -1.959434878635765131E-15, 16.00000000000000000 ) ) ;
#143 = LOCAL_TIME ( 15, 33, 14.00000000000000000, #121 ) ;
#144 = EDGE_LOOP ( 'NONE', ( #163 ) ) ;
#145 = DIRECTION ( 'NONE',  ( -3.491481338843133355E-15, 1.224646799147353207E-16, -1.000000000000000000 ) ) ;
#146 = CC_DESIGN_PERSON_AND_ORGANIZATION_ASSIGNMENT ( #56, #113, ( #64 ) ) ;
#147 = EDGE_LOOP ( 'NONE', ( #228 ) ) ;
#148 = FACE_BOUND ( 'NONE', #1, .T. ) ;
#149 = PRODUCT_DEFINITION_FORMATION_WITH_SPECIFIED_SOURCE ( 'ANY', '', #60, .NOT_KNOWN. ) ;
#150 = CARTESIAN_POINT ( 'NONE',  ( -1.325507748228056660E-30, 4.649255326251756942E-32, -3.796405077356793438E-16 ) ) ;
#151 = ORGANIZATION ( 'UNSPECIFIED', 'UNSPECIFIED', '' ) ;
#152 = CARTESIAN_POINT ( 'NONE',  ( 5.586370142149013368E-14, -1.959434878635765131E-15, 16.00000000000000000 ) ) ;
#153 = DIRECTION ( 'NONE',  ( 0.000000000000000000, 1.000000000000000000, 0.000000000000000000 ) ) ;
#154 = MANIFOLD_SOLID_BREP ( 'Corps-Déplacer/Copier1[2]', #194 ) ;
#155 = PERSON_AND_ORGANIZATION ( #100, #151 ) ;
#156 = AXIS2_PLACEMENT_3D ( 'NONE', #50, #122, #33 ) ;
#157 = VERTEX_POINT ( 'NONE', #197 ) ;
#158 = COORDINATED_UNIVERSAL_TIME_OFFSET ( 1, 0, .AHEAD. ) ;
#159 = MECHANICAL_CONTEXT ( 'NONE', #176, 'mechanical' ) ;
#160 = PERSON_AND_ORGANIZATION ( #100, #151 ) ;
#161 = CC_DESIGN_PERSON_AND_ORGANIZATION_ASSIGNMENT ( #160, #240, ( #204 ) ) ;
#162 = LOCAL_TIME ( 15, 33, 14.00000000000000000, #15 ) ;
#163 = ORIENTED_EDGE ( 'NONE', *, *, #88, .F. ) ;
#164 = PLANE ( 'NONE',  #7 ) ;
#165 = DESIGN_CONTEXT ( 'detailed design', #222, 'design' ) ;
#166 = CYLINDRICAL_SURFACE ( 'NONE', #85, 3.500000000000000444 ) ;
#167 = EDGE_LOOP ( 'NONE', ( #20 ) ) ;
#168 = DIRECTION ( 'NONE',  ( 4.402125587170824056E-31, 1.000000000000000000, 1.239088197126290570E-16 ) ) ;
#169 = EDGE_CURVE ( 'NONE', #157, #157, #40, .T. ) ;
#170 = AXIS2_PLACEMENT_3D ( 'NONE', #46, #112, #61 ) ;
#171 = CARTESIAN_POINT ( 'NONE',  ( 3.526396152231565067E-13, -1.236893267138826732E-14, 101.0000000000000000 ) ) ;
#172 = CC_DESIGN_APPROVAL ( #239, ( #149 ) ) ;
#173 = DIRECTION ( 'NONE',  ( -3.491481338843133355E-15, 1.224646799147353207E-16, -1.000000000000000000 ) ) ;
#174 = DIRECTION ( 'NONE',  ( -3.491481338843133355E-15, 1.224646799147353207E-16, -1.000000000000000000 ) ) ;
#175 = VERTEX_POINT ( 'NONE', #213 ) ;
#176 = APPLICATION_CONTEXT ( 'configuration controlled 3d designs of mechanical parts and assemblies' ) ;
#177 = APPROVAL_ROLE ( '' ) ;
#178 = CIRCLE ( 'NONE', #3, 3.500000000000000444 ) ;
#179 = CIRCLE ( 'NONE', #138, 2.400000000000003464 ) ;
#180 = ORIENTED_EDGE ( 'NONE', *, *, #224, .F. ) ;
#181 = PERSON_AND_ORGANIZATION ( #100, #151 ) ;
#182 = DIRECTION ( 'NONE',  ( -3.491481338843133355E-15, 1.224646799147353207E-16, -1.000000000000000000 ) ) ;
#183 = ADVANCED_FACE ( 'NONE', ( #192, #231 ), #129, .T. ) ;
#184 = EDGE_LOOP ( 'NONE', ( #123 ) ) ;
#185 = APPROVAL_DATE_TIME ( #65, #239 ) ;
#186 = ORIENTED_EDGE ( 'NONE', *, *, #83, .F. ) ;
#187 = ORIENTED_EDGE ( 'NONE', *, *, #44, .T. ) ;
#188 = ADVANCED_FACE ( 'NONE', ( #38 ), #128, .T. ) ;
#189 = PLANE ( 'NONE',  #23 ) ;
#190 = LOCAL_TIME ( 15, 33, 14.00000000000000000, #238 ) ;
#191 = CC_DESIGN_PERSON_AND_ORGANIZATION_ASSIGNMENT ( #181, #139, ( #149 ) ) ;
#192 = FACE_BOUND ( 'NONE', #51, .T. ) ;
#193 = DIRECTION ( 'NONE',  ( 0.000000000000000000, 1.000000000000000000, 0.000000000000000000 ) ) ;
#194 = CLOSED_SHELL ( 'NONE', ( #27, #188, #36, #68 ) ) ;
#195 = APPROVAL_PERSON_ORGANIZATION ( #53, #239, #206 ) ;
#196 = ADVANCED_FACE ( 'NONE', ( #230 ), #73, .F. ) ;
#197 = CARTESIAN_POINT ( 'NONE',  ( 0.000000000000000000, 3.099999999999998757, 0.000000000000000000 ) ) ;
#198 = CC_DESIGN_SECURITY_CLASSIFICATION ( #64, ( #149 ) ) ;
#199 = DATE_AND_TIME ( #47, #162 ) ;
#200 = FACE_OUTER_BOUND ( 'NONE', #243, .T. ) ;
#201 = CONICAL_SURFACE ( 'NONE', #101, 3.099999999999998757, 0.7853981633974504994 ) ;
#202 = APPROVAL_PERSON_ORGANIZATION ( #63, #59, #177 ) ;
#203 = FACE_OUTER_BOUND ( 'NONE', #209, .T. ) ;
#204 = PRODUCT_DEFINITION ( 'UNKNOWN', '', #149, #165 ) ;
#205 = EDGE_LOOP ( 'NONE', ( #187 ) ) ;
#206 = APPROVAL_ROLE ( '' ) ;
#207 = CARTESIAN_POINT ( 'NONE',  ( 5.586370142149013368E-14, -1.959434878635765131E-15, 16.00000000000000000 ) ) ;
#208 = AXIS2_PLACEMENT_3D ( 'NONE', #207, #242, #55 ) ;
#209 = EDGE_LOOP ( 'NONE', ( #81 ) ) ;
#210 = FACE_OUTER_BOUND ( 'NONE', #2, .T. ) ;
#211 = CC_DESIGN_APPROVAL ( #59, ( #204 ) ) ;
#212 = DIRECTION ( 'NONE',  ( 0.000000000000000000, 1.000000000000000000, 0.000000000000000000 ) ) ;
#213 = CARTESIAN_POINT ( 'NONE',  ( 3.505447264198505131E-13, 2.999999999999990674, 100.3999999999999915 ) ) ;
#214 = APPROVAL_ROLE ( '' ) ;
#215 = VERTEX_POINT ( 'NONE', #237 ) ;
#216 = PRODUCT_DEFINITION_SHAPE ( 'NONE', 'NONE',  #204 ) ;
#217 = PERSON_AND_ORGANIZATION ( #100, #151 ) ;
#218 = APPLICATION_PROTOCOL_DEFINITION ( 'international standard', 'config_control_design', 1994, #222 ) ;
#219 = CIRCLE ( 'NONE', #208, 3.500000000000000444 ) ;
#220 = CALENDAR_DATE ( 2023, 28, 9 ) ;
#221 = FACE_OUTER_BOUND ( 'NONE', #70, .T. ) ;
#222 = APPLICATION_CONTEXT ( 'configuration controlled 3d designs of mechanical parts and assemblies' ) ;
#223 = DIRECTION ( 'NONE',  ( -3.491481338843133355E-15, 1.224646799147353207E-16, -1.000000000000000000 ) ) ;
#224 = EDGE_CURVE ( 'NONE', #233, #233, #179, .T. ) ;
#225 = AXIS2_PLACEMENT_3D ( 'NONE', #142, #223, #141 ) ;
#226 = ORIENTED_EDGE ( 'NONE', *, *, #88, .T. ) ;
#227 = DIRECTION ( 'NONE',  ( 4.275831445896958607E-31, 1.000000000000000000, 1.224646799147353207E-16 ) ) ;
#228 = ORIENTED_EDGE ( 'NONE', *, *, #44, .F. ) ;
#229 = AXIS2_PLACEMENT_3D ( 'NONE', #150, #41, #110 ) ;
#230 = FACE_OUTER_BOUND ( 'NONE', #49, .T. ) ;
#231 = FACE_OUTER_BOUND ( 'NONE', #144, .T. ) ;
#232 = EDGE_CURVE ( 'NONE', #62, #62, #92, .T. ) ;
#233 = VERTEX_POINT ( 'NONE', #43 ) ;
#234 = MANIFOLD_SOLID_BREP ( 'Corps-Déplacer/Copier1[1]', #72 ) ;
#235 = PERSON_AND_ORGANIZATION_ROLE ( 'design_owner' ) ;
#236 = AXIS2_PLACEMENT_3D ( 'NONE', #152, #173, #126 ) ;
#237 = CARTESIAN_POINT ( 'NONE',  ( 5.586370142149013368E-14, 3.499999999999998224, 16.00000000000000000 ) ) ;
#238 = COORDINATED_UNIVERSAL_TIME_OFFSET ( 1, 0, .AHEAD. ) ;
#239 = APPROVAL ( #241, 'UNSPECIFIED' ) ;
#240 = PERSON_AND_ORGANIZATION_ROLE ( 'creator' ) ;
#241 = APPROVAL_STATUS ( 'not_yet_approved' ) ;
#242 = DIRECTION ( 'NONE',  ( -3.491481338843133355E-15, 1.224646799147353207E-16, -1.000000000000000000 ) ) ;
#243 = EDGE_LOOP ( 'NONE', ( #186 ) ) ;
ENDSEC;
END-ISO-10303-21;
