ISO-10303-21;
HEADER;
FILE_DESCRIPTION (( 'STEP AP203' ),
    '1' );
FILE_NAME ('342122.step',
    '2023-09-28T13:33:14',
    ( '' ),
    ( '' ),
    'SwSTEP 2.0',
    'SolidWorks 2022',
    '' );
FILE_SCHEMA (( 'CONFIG_CONTROL_DESIGN' ));
ENDSEC;

DATA;
#1 = CARTESIAN_POINT ( 'NONE',  ( 3.505447264198505131E-13, -1.229545386343942402E-14, 100.3999999999999915 ) ) ;
#2 = CARTESIAN_POINT ( 'NONE',  ( 3.526396152231565067E-13, -1.236893267138826732E-14, 101.0000000000000000 ) ) ;
#3 = CC_DESIGN_PERSON_AND_ORGANIZATION_ASSIGNMENT ( #191, #187, ( #142 ) ) ;
#4 = CYLINDRICAL_SURFACE ( 'NONE', #176, 2.999999999999996447 ) ;
#5 = CIRCLE ( 'NONE', #8, 3.000000000000002665 ) ;
#6 = DIRECTION ( 'NONE',  ( -4.275831445896958607E-31, -1.000000000000000000, -1.224646799147353207E-16 ) ) ;
#7 = CC_DESIGN_DATE_AND_TIME_ASSIGNMENT ( #35, #202, ( #142 ) ) ;
#8 = AXIS2_PLACEMENT_3D ( 'NONE', #1, #210, #41 ) ;
#9 = CARTESIAN_POINT ( 'NONE',  ( 5.586370142149013368E-14, 2.587085625091701910E-32, 16.00000000000000000 ) ) ;
#10 = FACE_OUTER_BOUND ( 'NONE', #111, .T. ) ;
#11 = MECHANICAL_CONTEXT ( 'NONE', #224, 'mechanical' ) ;
#12 = ORIENTED_EDGE ( 'NONE', *, *, #195, .T. ) ;
#13 = PERSON_AND_ORGANIZATION ( #89, #169 ) ;
#14 = EDGE_LOOP ( 'NONE', ( #56 ) ) ;
#15 = APPROVAL_DATE_TIME ( #222, #145 ) ;
#16 = PERSON_AND_ORGANIZATION_ROLE ( 'creator' ) ;
#17 = DIRECTION ( 'NONE',  ( 3.491481338843133355E-15, -1.224646799147353207E-16, 1.000000000000000000 ) ) ;
#18 = FACE_BOUND ( 'NONE', #221, .T. ) ;
#19 = CARTESIAN_POINT ( 'NONE',  ( 0.000000000000000000, 0.000000000000000000, 0.000000000000000000 ) ) ;
#20 = APPROVAL_DATE_TIME ( #38, #209 ) ;
#21 = DIRECTION ( 'NONE',  ( -3.491481338843133355E-15, 1.224646799147353207E-16, -1.000000000000000000 ) ) ;
#22 = CARTESIAN_POINT ( 'NONE',  ( -6.520642954992859729E-31, 2.287133668559332031E-32, -1.867586368699713080E-16 ) ) ;
#23 = CC_DESIGN_PERSON_AND_ORGANIZATION_ASSIGNMENT ( #40, #16, ( #36 ) ) ;
#24 = AXIS2_PLACEMENT_3D ( 'NONE', #102, #80, #175 ) ;
#25 = APPLICATION_PROTOCOL_DEFINITION ( 'international standard', 'config_control_design', 1994, #224 ) ;
#26 = ADVANCED_FACE ( 'NONE', ( #147 ), #164, .T. ) ;
#27 = FACE_BOUND ( 'NONE', #14, .T. ) ;
#28 = LOCAL_TIME ( 15, 33, 14.00000000000000000, #73 ) ;
#29 = CARTESIAN_POINT ( 'NONE',  ( 3.505447264198505131E-13, 2.999999999999990674, 100.3999999999999915 ) ) ;
#30 = VERTEX_POINT ( 'NONE', #125 ) ;
#31 = EDGE_LOOP ( 'NONE', ( #37 ) ) ;
#32 = DIRECTION ( 'NONE',  ( 0.000000000000000000, 1.000000000000000000, 0.000000000000000000 ) ) ;
#33 = AXIS2_PLACEMENT_3D ( 'NONE', #9, #199, #6 ) ;
#34 = DATE_AND_TIME ( #151, #103 ) ;
#35 = DATE_AND_TIME ( #220, #28 ) ;
#36 = PRODUCT_DEFINITION ( 'UNKNOWN', '', #42, #173 ) ;
#37 = ORIENTED_EDGE ( 'NONE', *, *, #84, .T. ) ;
#38 = DATE_AND_TIME ( #57, #98 ) ;
#39 = AXIS2_PLACEMENT_3D ( 'NONE', #94, #129, #32 ) ;
#40 = PERSON_AND_ORGANIZATION ( #89, #169 ) ;
#41 = DIRECTION ( 'NONE',  ( 0.000000000000000000, 1.000000000000000000, 0.000000000000000000 ) ) ;
#42 = PRODUCT_DEFINITION_FORMATION_WITH_SPECIFIED_SOURCE ( 'ANY', '', #45, .NOT_KNOWN. ) ;
#43 = CARTESIAN_POINT ( 'NONE',  ( 5.586370142149013368E-14, 3.449999999999998845, 16.00000000000000000 ) ) ;
#44 = VERTEX_POINT ( 'NONE', #66 ) ;
#45 = PRODUCT ( '342122', '342122', '', ( #11 ) ) ;
#46 = CARTESIAN_POINT ( 'NONE',  ( 5.858504180413990020E-14, 2.999999999999988010, 16.77942286340601186 ) ) ;
#47 = AXIS2_PLACEMENT_3D ( 'NONE', #58, #135, #182 ) ;
#48 = MANIFOLD_SOLID_BREP ( 'Corps-Déplacer/Copier1[2]', #160 ) ;
#49 =( NAMED_UNIT ( * ) SI_UNIT ( $, .STERADIAN. ) SOLID_ANGLE_UNIT ( ) );
#50 = FACE_BOUND ( 'NONE', #92, .T. ) ;
#51 = CARTESIAN_POINT ( 'NONE',  ( 0.000000000000000000, 0.000000000000000000, 0.000000000000000000 ) ) ;
#52 = EDGE_LOOP ( 'NONE', ( #132 ) ) ;
#53 = SHAPE_DEFINITION_REPRESENTATION ( #63, #106 ) ;
#54 = ORIENTED_EDGE ( 'NONE', *, *, #124, .T. ) ;
#55 = CIRCLE ( 'NONE', #39, 3.450000000000000622 ) ;
#56 = ORIENTED_EDGE ( 'NONE', *, *, #105, .F. ) ;
#57 = CALENDAR_DATE ( 2023, 28, 9 ) ;
#58 = CARTESIAN_POINT ( 'NONE',  ( 5.586370142149013368E-14, -1.959434878635765131E-15, 16.00000000000000000 ) ) ;
#59 = PERSON_AND_ORGANIZATION ( #89, #169 ) ;
#60 = CARTESIAN_POINT ( 'NONE',  ( 0.000000000000000000, 0.000000000000000000, 0.000000000000000000 ) ) ;
#61 = DIRECTION ( 'NONE',  ( -3.491481338843133355E-15, 1.224646799147353207E-16, -1.000000000000000000 ) ) ;
#62 = APPROVAL_PERSON_ORGANIZATION ( #101, #209, #174 ) ;
#63 = PRODUCT_DEFINITION_SHAPE ( 'NONE', 'NONE',  #36 ) ;
#64 = FACE_OUTER_BOUND ( 'NONE', #219, .T. ) ;
#65 = VERTEX_POINT ( 'NONE', #43 ) ;
#66 = CARTESIAN_POINT ( 'NONE',  ( 1.396592535537252553E-15, 3.450000000000000178, 0.3999999999999997446 ) ) ;
#67 = ADVANCED_FACE ( 'NONE', ( #50, #168 ), #93, .T. ) ;
#68 = CONICAL_SURFACE ( 'NONE', #206, 3.049999999999998934, 0.7853981633974504994 ) ;
#69 = CC_DESIGN_SECURITY_CLASSIFICATION ( #142, ( #42 ) ) ;
#70 = DIRECTION ( 'NONE',  ( -3.491481338843133355E-15, 1.224646799147353207E-16, -1.000000000000000000 ) ) ;
#71 = ORIENTED_EDGE ( 'NONE', *, *, #87, .T. ) ;
#72 = ADVANCED_FACE ( 'NONE', ( #10 ), #163, .F. ) ;
#73 = COORDINATED_UNIVERSAL_TIME_OFFSET ( 1, 0, .AHEAD. ) ;
#74 = EDGE_LOOP ( 'NONE', ( #218 ) ) ;
#75 = LOCAL_TIME ( 15, 33, 14.00000000000000000, #241 ) ;
#76 = APPROVAL_STATUS ( 'not_yet_approved' ) ;
#77 = EDGE_LOOP ( 'NONE', ( #12 ) ) ;
#78 = APPLICATION_PROTOCOL_DEFINITION ( 'international standard', 'config_control_design', 1994, #190 ) ;
#79 = FACE_OUTER_BOUND ( 'NONE', #77, .T. ) ;
#80 = DIRECTION ( 'NONE',  ( -3.491481338843133355E-15, 1.224646799147353207E-16, -1.000000000000000000 ) ) ;
#81 = LOCAL_TIME ( 15, 33, 14.00000000000000000, #153 ) ;
#82 = DIRECTION ( 'NONE',  ( -3.491481338843133355E-15, 1.224646799147353207E-16, -1.000000000000000000 ) ) ;
#83 = DIRECTION ( 'NONE',  ( -3.491481338843133355E-15, 1.224646799147353207E-16, -1.000000000000000000 ) ) ;
#84 = EDGE_CURVE ( 'NONE', #65, #65, #55, .T. ) ;
#85 = CARTESIAN_POINT ( 'NONE',  ( 3.526396152231565067E-13, -1.236893267138826732E-14, 101.0000000000000000 ) ) ;
#86 = CIRCLE ( 'NONE', #113, 2.999999999999990230 ) ;
#87 = EDGE_CURVE ( 'NONE', #44, #44, #138, .T. ) ;
#88 = CARTESIAN_POINT ( 'NONE',  ( 0.000000000000000000, 3.049999999999998934, 0.000000000000000000 ) ) ;
#89 = PERSON ( 'UNSPECIFIED', 'UNSPECIFIED', 'UNSPECIFIED', ('UNSPECIFIED'), ('UNSPECIFIED'), ('UNSPECIFIED') ) ;
#90 =( NAMED_UNIT ( * ) PLANE_ANGLE_UNIT ( ) SI_UNIT ( $, .RADIAN. ) );
#91 = ORIENTED_EDGE ( 'NONE', *, *, #195, .F. ) ;
#92 = EDGE_LOOP ( 'NONE', ( #152 ) ) ;
#93 = CONICAL_SURFACE ( 'NONE', #47, 3.450000000000000622, 0.5235987755982998149 ) ;
#94 = CARTESIAN_POINT ( 'NONE',  ( 5.586370142149013368E-14, -1.959434878635765131E-15, 16.00000000000000000 ) ) ;
#95 = COORDINATED_UNIVERSAL_TIME_OFFSET ( 1, 0, .AHEAD. ) ;
#96 = APPROVAL_ROLE ( '' ) ;
#97 = ORIENTED_EDGE ( 'NONE', *, *, #124, .F. ) ;
#98 = LOCAL_TIME ( 15, 33, 14.00000000000000000, #95 ) ;
#99 = CYLINDRICAL_SURFACE ( 'NONE', #211, 3.450000000000000622 ) ;
#100 = FACE_OUTER_BOUND ( 'NONE', #74, .T. ) ;
#101 = PERSON_AND_ORGANIZATION ( #89, #169 ) ;
#102 = CARTESIAN_POINT ( 'NONE',  ( 1.396592535537250976E-15, -4.898587196589404447E-17, 0.3999999999999993006 ) ) ;
#103 = LOCAL_TIME ( 15, 33, 14.00000000000000000, #243 ) ;
#104 = DIRECTION ( 'NONE',  ( 0.000000000000000000, 1.000000000000000000, 0.000000000000000000 ) ) ;
#105 = EDGE_CURVE ( 'NONE', #198, #198, #239, .T. ) ;
#106 = ADVANCED_BREP_SHAPE_REPRESENTATION ( '342122', ( #130, #48, #150 ), #196 ) ;
#107 = AXIS2_PLACEMENT_3D ( 'NONE', #208, #82, #177 ) ;
#108 = VERTEX_POINT ( 'NONE', #46 ) ;
#109 = CC_DESIGN_APPROVAL ( #145, ( #42 ) ) ;
#110 =( LENGTH_UNIT ( ) NAMED_UNIT ( * ) SI_UNIT ( .MILLI., .METRE. ) );
#111 = EDGE_LOOP ( 'NONE', ( #97 ) ) ;
#112 = EDGE_LOOP ( 'NONE', ( #165 ) ) ;
#113 = AXIS2_PLACEMENT_3D ( 'NONE', #192, #21, #104 ) ;
#114 = CALENDAR_DATE ( 2023, 28, 9 ) ;
#115 = EDGE_LOOP ( 'NONE', ( #233 ) ) ;
#116 = CLOSED_SHELL ( 'NONE', ( #226, #67, #179, #119, #72 ) ) ;
#117 = FACE_OUTER_BOUND ( 'NONE', #52, .T. ) ;
#118 = APPROVAL_DATE_TIME ( #34, #231 ) ;
#119 = ADVANCED_FACE ( 'NONE', ( #171, #18 ), #193, .T. ) ;
#120 = DIRECTION ( 'NONE',  ( -3.491481338843133355E-15, 1.224646799147353207E-16, -1.000000000000000000 ) ) ;
#121 = CC_DESIGN_APPROVAL ( #231, ( #36 ) ) ;
#122 = FACE_OUTER_BOUND ( 'NONE', #115, .T. ) ;
#123 = DIRECTION ( 'NONE',  ( 3.491481338843133355E-15, -1.224646799147353207E-16, 1.000000000000000000 ) ) ;
#124 = EDGE_CURVE ( 'NONE', #146, #146, #201, .T. ) ;
#125 = CARTESIAN_POINT ( 'NONE',  ( 5.586370142149013368E-14, 3.449999999999998845, 16.00000000000000000 ) ) ;
#126 = AXIS2_PLACEMENT_3D ( 'NONE', #134, #17, #216 ) ;
#127 = CARTESIAN_POINT ( 'NONE',  ( 3.526396152231565067E-13, 1.799711739194212982E-32, 101.0000000000000000 ) ) ;
#128 = DIRECTION ( 'NONE',  ( 0.000000000000000000, 0.000000000000000000, 1.000000000000000000 ) ) ;
#129 = DIRECTION ( 'NONE',  ( -3.491481338843133355E-15, 1.224646799147353207E-16, -1.000000000000000000 ) ) ;
#130 = MANIFOLD_SOLID_BREP ( 'Corps-Déplacer/Copier1[1]', #116 ) ;
#131 = PERSON_AND_ORGANIZATION_ROLE ( 'design_owner' ) ;
#132 = ORIENTED_EDGE ( 'NONE', *, *, #188, .T. ) ;
#133 = PERSON_AND_ORGANIZATION ( #89, #169 ) ;
#134 = CARTESIAN_POINT ( 'NONE',  ( 5.586370142149013368E-14, 2.587085625091701910E-32, 16.00000000000000000 ) ) ;
#135 = DIRECTION ( 'NONE',  ( -3.491481338843133355E-15, 1.224646799147353207E-16, -1.000000000000000000 ) ) ;
#136 = APPROVAL_STATUS ( 'not_yet_approved' ) ;
#137 = FACE_OUTER_BOUND ( 'NONE', #112, .T. ) ;
#138 = CIRCLE ( 'NONE', #24, 3.450000000000000178 ) ;
#139 = PERSON_AND_ORGANIZATION ( #89, #169 ) ;
#140 = CC_DESIGN_PERSON_AND_ORGANIZATION_ASSIGNMENT ( #13, #131, ( #45 ) ) ;
#141 = DIRECTION ( 'NONE',  ( 0.000000000000000000, 1.000000000000000000, 0.000000000000000000 ) ) ;
#142 = SECURITY_CLASSIFICATION ( '', '', #205 ) ;
#143 = DIRECTION ( 'NONE',  ( 4.275831445896958607E-31, 1.000000000000000000, 1.224646799147353207E-16 ) ) ;
#144 = CIRCLE ( 'NONE', #215, 3.450000000000000622 ) ;
#145 = APPROVAL ( #76, 'UNSPECIFIED' ) ;
#146 = VERTEX_POINT ( 'NONE', #181 ) ;
#147 = FACE_OUTER_BOUND ( 'NONE', #237, .T. ) ;
#148 = DIRECTION ( 'NONE',  ( 4.275831445896958607E-31, 1.000000000000000000, 1.224646799147353207E-16 ) ) ;
#149 = EDGE_LOOP ( 'NONE', ( #240 ) ) ;
#150 = AXIS2_PLACEMENT_3D ( 'NONE', #51, #128, #185 ) ;
#151 = CALENDAR_DATE ( 2023, 28, 9 ) ;
#152 = ORIENTED_EDGE ( 'NONE', *, *, #166, .T. ) ;
#153 = COORDINATED_UNIVERSAL_TIME_OFFSET ( 1, 0, .AHEAD. ) ;
#154 = PERSON_AND_ORGANIZATION_ROLE ( 'creator' ) ;
#155 = DIRECTION ( 'NONE',  ( -3.491481338843133355E-15, 1.224646799147353207E-16, -1.000000000000000000 ) ) ;
#156 = UNCERTAINTY_MEASURE_WITH_UNIT (LENGTH_MEASURE( 1.000000000000000082E-05 ), #110, 'distance_accuracy_value', 'NONE');
#157 = DIRECTION ( 'NONE',  ( -3.491481338843133355E-15, 1.224646799147353207E-16, -1.000000000000000000 ) ) ;
#158 = DIRECTION ( 'NONE',  ( 0.000000000000000000, 1.000000000000000000, 0.000000000000000000 ) ) ;
#159 = AXIS2_PLACEMENT_3D ( 'NONE', #127, #70, #148 ) ;
#160 = CLOSED_SHELL ( 'NONE', ( #183, #26, #197, #235 ) ) ;
#161 = CC_DESIGN_APPROVAL ( #209, ( #142 ) ) ;
#162 = DIRECTION ( 'NONE',  ( 4.275831445896958607E-31, 1.000000000000000000, 1.224646799147353207E-16 ) ) ;
#163 = PLANE ( 'NONE',  #159 ) ;
#164 = PLANE ( 'NONE',  #126 ) ;
#165 = ORIENTED_EDGE ( 'NONE', *, *, #87, .F. ) ;
#166 = EDGE_CURVE ( 'NONE', #108, #108, #86, .T. ) ;
#167 = PERSON_AND_ORGANIZATION_ROLE ( 'design_supplier' ) ;
#168 = FACE_OUTER_BOUND ( 'NONE', #149, .T. ) ;
#169 = ORGANIZATION ( 'UNSPECIFIED', 'UNSPECIFIED', '' ) ;
#170 = DATE_AND_TIME ( #114, #81 ) ;
#171 = FACE_OUTER_BOUND ( 'NONE', #203, .T. ) ;
#172 = DIRECTION ( 'NONE',  ( 0.000000000000000000, 1.000000000000000000, 0.000000000000000000 ) ) ;
#173 = DESIGN_CONTEXT ( 'detailed design', #190, 'design' ) ;
#174 = APPROVAL_ROLE ( '' ) ;
#175 = DIRECTION ( 'NONE',  ( 4.465924508724025293E-31, 1.000000000000000000, 1.257045997084642858E-16 ) ) ;
#176 = AXIS2_PLACEMENT_3D ( 'NONE', #60, #83, #228 ) ;
#177 = DIRECTION ( 'NONE',  ( 4.275831445896958607E-31, 1.000000000000000000, 1.224646799147353207E-16 ) ) ;
#178 = AXIS2_PLACEMENT_3D ( 'NONE', #2, #155, #141 ) ;
#179 = ADVANCED_FACE ( 'NONE', ( #100, #79 ), #4, .T. ) ;
#180 = APPROVAL_PERSON_ORGANIZATION ( #204, #145, #96 ) ;
#181 = CARTESIAN_POINT ( 'NONE',  ( 3.526396152231565067E-13, 2.399999999999990585, 101.0000000000000000 ) ) ;
#182 = DIRECTION ( 'NONE',  ( 0.000000000000000000, 1.000000000000000000, 0.000000000000000000 ) ) ;
#183 = ADVANCED_FACE ( 'NONE', ( #117, #137 ), #99, .T. ) ;
#184 = ORIENTED_EDGE ( 'NONE', *, *, #188, .F. ) ;
#185 = DIRECTION ( 'NONE',  ( 1.000000000000000000, 0.000000000000000000, 0.000000000000000000 ) ) ;
#186 = APPROVAL_PERSON_ORGANIZATION ( #133, #231, #225 ) ;
#187 = PERSON_AND_ORGANIZATION_ROLE ( 'classification_officer' ) ;
#188 = EDGE_CURVE ( 'NONE', #30, #30, #144, .T. ) ;
#189 = AXIS2_PLACEMENT_3D ( 'NONE', #85, #120, #158 ) ;
#190 = APPLICATION_CONTEXT ( 'configuration controlled 3d designs of mechanical parts and assemblies' ) ;
#191 = PERSON_AND_ORGANIZATION ( #89, #169 ) ;
#192 = CARTESIAN_POINT ( 'NONE',  ( 5.858504180413990020E-14, -2.054886650121008857E-15, 16.77942286340601186 ) ) ;
#193 = CONICAL_SURFACE ( 'NONE', #178, 2.400000000000003464, 0.7853981633974335130 ) ;
#194 = PLANE ( 'NONE',  #229 ) ;
#195 = EDGE_CURVE ( 'NONE', #236, #236, #5, .T. ) ;
#196 =( GEOMETRIC_REPRESENTATION_CONTEXT ( 3 ) GLOBAL_UNCERTAINTY_ASSIGNED_CONTEXT ( ( #156 ) ) GLOBAL_UNIT_ASSIGNED_CONTEXT ( ( #110, #90, #49 ) ) REPRESENTATION_CONTEXT ( 'NONE', 'WORKASPACE' ) );
#197 = ADVANCED_FACE ( 'NONE', ( #122 ), #194, .T. ) ;
#198 = VERTEX_POINT ( 'NONE', #88 ) ;
#199 = DIRECTION ( 'NONE',  ( 3.491481338843133355E-15, -1.224646799147353207E-16, 1.000000000000000000 ) ) ;
#200 = CC_DESIGN_PERSON_AND_ORGANIZATION_ASSIGNMENT ( #59, #167, ( #42 ) ) ;
#201 = CIRCLE ( 'NONE', #189, 2.400000000000003464 ) ;
#202 = DATE_TIME_ROLE ( 'classification_date' ) ;
#203 = EDGE_LOOP ( 'NONE', ( #91 ) ) ;
#204 = PERSON_AND_ORGANIZATION ( #89, #169 ) ;
#205 = SECURITY_CLASSIFICATION_LEVEL ( 'unclassified' ) ;
#206 = AXIS2_PLACEMENT_3D ( 'NONE', #230, #123, #232 ) ;
#207 = APPROVAL_STATUS ( 'not_yet_approved' ) ;
#208 = CARTESIAN_POINT ( 'NONE',  ( -1.304128590998571946E-30, 4.574267337118664062E-32, -3.735172737399426160E-16 ) ) ;
#209 = APPROVAL ( #136, 'UNSPECIFIED' ) ;
#210 = DIRECTION ( 'NONE',  ( -3.491481338843133355E-15, 1.224646799147353207E-16, -1.000000000000000000 ) ) ;
#211 = AXIS2_PLACEMENT_3D ( 'NONE', #19, #157, #143 ) ;
#212 = DIRECTION ( 'NONE',  ( -3.491481338843133355E-15, 1.224646799147353207E-16, -1.000000000000000000 ) ) ;
#213 = PLANE ( 'NONE',  #33 ) ;
#214 = CC_DESIGN_PERSON_AND_ORGANIZATION_ASSIGNMENT ( #139, #154, ( #42 ) ) ;
#215 = AXIS2_PLACEMENT_3D ( 'NONE', #227, #61, #172 ) ;
#216 = DIRECTION ( 'NONE',  ( -4.275831445896958607E-31, -1.000000000000000000, -1.224646799147353207E-16 ) ) ;
#217 = DATE_TIME_ROLE ( 'creation_date' ) ;
#218 = ORIENTED_EDGE ( 'NONE', *, *, #166, .F. ) ;
#219 = EDGE_LOOP ( 'NONE', ( #71 ) ) ;
#220 = CALENDAR_DATE ( 2023, 28, 9 ) ;
#221 = EDGE_LOOP ( 'NONE', ( #54 ) ) ;
#222 = DATE_AND_TIME ( #238, #75 ) ;
#223 = PRODUCT_RELATED_PRODUCT_CATEGORY ( 'detail', '', ( #45 ) ) ;
#224 = APPLICATION_CONTEXT ( 'configuration controlled 3d designs of mechanical parts and assemblies' ) ;
#225 = APPROVAL_ROLE ( '' ) ;
#226 = ADVANCED_FACE ( 'NONE', ( #234 ), #213, .F. ) ;
#227 = CARTESIAN_POINT ( 'NONE',  ( 5.586370142149013368E-14, -1.959434878635765131E-15, 16.00000000000000000 ) ) ;
#228 = DIRECTION ( 'NONE',  ( 4.275831445896958607E-31, 1.000000000000000000, 1.224646799147353207E-16 ) ) ;
#229 = AXIS2_PLACEMENT_3D ( 'NONE', #22, #212, #162 ) ;
#230 = CARTESIAN_POINT ( 'NONE',  ( -1.304128590998571946E-30, 4.574267337118664062E-32, -3.735172737399426160E-16 ) ) ;
#231 = APPROVAL ( #207, 'UNSPECIFIED' ) ;
#232 = DIRECTION ( 'NONE',  ( -4.275831445896958607E-31, -1.000000000000000000, -1.224646799147353207E-16 ) ) ;
#233 = ORIENTED_EDGE ( 'NONE', *, *, #105, .T. ) ;
#234 = FACE_OUTER_BOUND ( 'NONE', #31, .T. ) ;
#235 = ADVANCED_FACE ( 'NONE', ( #64, #27 ), #68, .T. ) ;
#236 = VERTEX_POINT ( 'NONE', #29 ) ;
#237 = EDGE_LOOP ( 'NONE', ( #184 ) ) ;
#238 = CALENDAR_DATE ( 2023, 28, 9 ) ;
#239 = CIRCLE ( 'NONE', #107, 3.049999999999998934 ) ;
#240 = ORIENTED_EDGE ( 'NONE', *, *, #84, .F. ) ;
#241 = COORDINATED_UNIVERSAL_TIME_OFFSET ( 1, 0, .AHEAD. ) ;
#242 = CC_DESIGN_DATE_AND_TIME_ASSIGNMENT ( #170, #217, ( #36 ) ) ;
#243 = COORDINATED_UNIVERSAL_TIME_OFFSET ( 1, 0, .AHEAD. ) ;
ENDSEC;
END-ISO-10303-21;
