ISO-10303-21;
HEADER;
FILE_DESCRIPTION (( 'STEP AP203' ),
    '1' );
FILE_NAME ('342112.step',
    '2023-09-28T13:33:13',
    ( '' ),
    ( '' ),
    'SwSTEP 2.0',
    'SolidWorks 2022',
    '' );
FILE_SCHEMA (( 'CONFIG_CONTROL_DESIGN' ));
ENDSEC;

DATA;
#1 = CARTESIAN_POINT ( 'NONE',  ( 5.586370142149013368E-14, -1.959434878635765131E-15, 16.00000000000000000 ) ) ;
#2 = CARTESIAN_POINT ( 'NONE',  ( 3.526396152231565067E-13, 2.399999999999990585, 101.0000000000000000 ) ) ;
#3 = LOCAL_TIME ( 15, 33, 13.00000000000000000, #13 ) ;
#4 = CC_DESIGN_PERSON_AND_ORGANIZATION_ASSIGNMENT ( #120, #213, ( #138 ) ) ;
#5 = FACE_OUTER_BOUND ( 'NONE', #55, .T. ) ;
#6 = LOCAL_TIME ( 15, 33, 13.00000000000000000, #123 ) ;
#7 = EDGE_CURVE ( 'NONE', #190, #190, #229, .T. ) ;
#8 = APPROVAL_PERSON_ORGANIZATION ( #29, #48, #199 ) ;
#9 = DATE_AND_TIME ( #121, #160 ) ;
#10 = EDGE_LOOP ( 'NONE', ( #83 ) ) ;
#11 = PERSON_AND_ORGANIZATION ( #174, #26 ) ;
#12 = EDGE_LOOP ( 'NONE', ( #221 ) ) ;
#13 = COORDINATED_UNIVERSAL_TIME_OFFSET ( 1, 0, .AHEAD. ) ;
#14 = FACE_OUTER_BOUND ( 'NONE', #223, .T. ) ;
#15 = AXIS2_PLACEMENT_3D ( 'NONE', #168, #228, #79 ) ;
#16 = CARTESIAN_POINT ( 'NONE',  ( -1.282749433769087056E-30, 4.499279347985570634E-32, -3.673940397442057896E-16 ) ) ;
#17 = DIRECTION ( 'NONE',  ( 4.275831445896958607E-31, 1.000000000000000000, 1.224646799147353207E-16 ) ) ;
#18 = DIRECTION ( 'NONE',  ( -3.491481338843133355E-15, 1.224646799147353207E-16, -1.000000000000000000 ) ) ;
#19 = CONICAL_SURFACE ( 'NONE', #230, 3.400000000000000355, 0.5235987755982999259 ) ;
#20 = CARTESIAN_POINT ( 'NONE',  ( 5.828267065051214977E-14, 2.999999999999988010, 16.69282032302756846 ) ) ;
#21 = DIRECTION ( 'NONE',  ( 0.000000000000000000, 1.000000000000000000, 0.000000000000000000 ) ) ;
#22 = ADVANCED_FACE ( 'NONE', ( #132 ), #163, .T. ) ;
#23 = DIRECTION ( 'NONE',  ( -3.491481338843133355E-15, 1.224646799147353207E-16, -1.000000000000000000 ) ) ;
#24 = AXIS2_PLACEMENT_3D ( 'NONE', #127, #53, #241 ) ;
#25 = FACE_OUTER_BOUND ( 'NONE', #232, .T. ) ;
#26 = ORGANIZATION ( 'UNSPECIFIED', 'UNSPECIFIED', '' ) ;
#27 = DIRECTION ( 'NONE',  ( 4.275831445896958607E-31, 1.000000000000000000, 1.224646799147353207E-16 ) ) ;
#28 = CC_DESIGN_PERSON_AND_ORGANIZATION_ASSIGNMENT ( #88, #50, ( #65 ) ) ;
#29 = PERSON_AND_ORGANIZATION ( #174, #26 ) ;
#30 = EDGE_CURVE ( 'NONE', #117, #117, #78, .T. ) ;
#31 = EDGE_LOOP ( 'NONE', ( #217 ) ) ;
#32 = CIRCLE ( 'NONE', #61, 2.400000000000003464 ) ;
#33 = APPROVAL_ROLE ( '' ) ;
#34 = DIRECTION ( 'NONE',  ( 0.000000000000000000, 1.000000000000000000, 0.000000000000000000 ) ) ;
#35 = DATE_AND_TIME ( #233, #202 ) ;
#36 = DIRECTION ( 'NONE',  ( 3.491481338843133355E-15, -1.224646799147353207E-16, 1.000000000000000000 ) ) ;
#37 = LOCAL_TIME ( 15, 33, 13.00000000000000000, #107 ) ;
#38 = ORIENTED_EDGE ( 'NONE', *, *, #171, .F. ) ;
#39 = ORIENTED_EDGE ( 'NONE', *, *, #30, .T. ) ;
#40 = AXIS2_PLACEMENT_3D ( 'NONE', #97, #207, #98 ) ;
#41 = ADVANCED_FACE ( 'NONE', ( #164, #14 ), #106, .T. ) ;
#42 = PLANE ( 'NONE',  #109 ) ;
#43 = APPROVAL_PERSON_ORGANIZATION ( #231, #44, #33 ) ;
#44 = APPROVAL ( #162, 'UNSPECIFIED' ) ;
#45 = PRODUCT_DEFINITION_SHAPE ( 'NONE', 'NONE',  #65 ) ;
#46 = MANIFOLD_SOLID_BREP ( 'Corps-Déplacer/Copier1[1]', #116 ) ;
#47 = AXIS2_PLACEMENT_3D ( 'NONE', #205, #36, #159 ) ;
#48 = APPROVAL ( #103, 'UNSPECIFIED' ) ;
#49 =( NAMED_UNIT ( * ) SI_UNIT ( $, .STERADIAN. ) SOLID_ANGLE_UNIT ( ) );
#50 = PERSON_AND_ORGANIZATION_ROLE ( 'creator' ) ;
#51 = AXIS2_PLACEMENT_3D ( 'NONE', #59, #161, #68 ) ;
#52 = CARTESIAN_POINT ( 'NONE',  ( 0.000000000000000000, 0.000000000000000000, 0.000000000000000000 ) ) ;
#53 = DIRECTION ( 'NONE',  ( 3.491481338843133355E-15, -1.224646799147353207E-16, 1.000000000000000000 ) ) ;
#54 = PERSON_AND_ORGANIZATION_ROLE ( 'design_supplier' ) ;
#55 = EDGE_LOOP ( 'NONE', ( #142 ) ) ;
#56 = ORIENTED_EDGE ( 'NONE', *, *, #7, .F. ) ;
#57 = CIRCLE ( 'NONE', #152, 3.400000000000000355 ) ;
#58 = DIRECTION ( 'NONE',  ( 3.491481338843133355E-15, -1.224646799147353207E-16, 1.000000000000000000 ) ) ;
#59 = CARTESIAN_POINT ( 'NONE',  ( 0.000000000000000000, 0.000000000000000000, 0.000000000000000000 ) ) ;
#60 = DIRECTION ( 'NONE',  ( -3.491481338843133355E-15, 1.224646799147353207E-16, -1.000000000000000000 ) ) ;
#61 = AXIS2_PLACEMENT_3D ( 'NONE', #203, #182, #165 ) ;
#62 = VERTEX_POINT ( 'NONE', #20 ) ;
#63 = CC_DESIGN_APPROVAL ( #48, ( #138 ) ) ;
#64 = APPROVAL_ROLE ( '' ) ;
#65 = PRODUCT_DEFINITION ( 'UNKNOWN', '', #206, #173 ) ;
#66 = EDGE_LOOP ( 'NONE', ( #179 ) ) ;
#67 = CALENDAR_DATE ( 2023, 28, 9 ) ;
#68 = DIRECTION ( 'NONE',  ( 4.275831445896958607E-31, 1.000000000000000000, 1.224646799147353207E-16 ) ) ;
#69 = CALENDAR_DATE ( 2023, 28, 9 ) ;
#70 = EDGE_LOOP ( 'NONE', ( #147 ) ) ;
#71 = CC_DESIGN_DATE_AND_TIME_ASSIGNMENT ( #145, #195, ( #138 ) ) ;
#72 = PLANE ( 'NONE',  #47 ) ;
#73 = CC_DESIGN_SECURITY_CLASSIFICATION ( #138, ( #206 ) ) ;
#74 = DIRECTION ( 'NONE',  ( 0.000000000000000000, 1.000000000000000000, 0.000000000000000000 ) ) ;
#75 = APPLICATION_CONTEXT ( 'configuration controlled 3d designs of mechanical parts and assemblies' ) ;
#76 = CARTESIAN_POINT ( 'NONE',  ( 1.396592535537253342E-15, 3.399999999999999467, 0.3999999999999999667 ) ) ;
#77 = CARTESIAN_POINT ( 'NONE',  ( 5.586370142149013368E-14, 3.399999999999998135, 16.00000000000000000 ) ) ;
#78 = CIRCLE ( 'NONE', #220, 3.000000000000002665 ) ;
#79 = DIRECTION ( 'NONE',  ( 4.275831445896958607E-31, 1.000000000000000000, 1.224646799147353207E-16 ) ) ;
#80 = CARTESIAN_POINT ( 'NONE',  ( -1.710569414459005214E-46, 2.999999999999998224, 0.000000000000000000 ) ) ;
#81 = VERTEX_POINT ( 'NONE', #76 ) ;
#82 = EDGE_CURVE ( 'NONE', #166, #166, #32, .T. ) ;
#83 = ORIENTED_EDGE ( 'NONE', *, *, #131, .F. ) ;
#84 = COORDINATED_UNIVERSAL_TIME_OFFSET ( 1, 0, .AHEAD. ) ;
#85 = CC_DESIGN_PERSON_AND_ORGANIZATION_ASSIGNMENT ( #236, #91, ( #218 ) ) ;
#86 = APPROVAL_STATUS ( 'not_yet_approved' ) ;
#87 = ORIENTED_EDGE ( 'NONE', *, *, #136, .F. ) ;
#88 = PERSON_AND_ORGANIZATION ( #174, #26 ) ;
#89 = FACE_OUTER_BOUND ( 'NONE', #66, .T. ) ;
#90 = CIRCLE ( 'NONE', #225, 2.999999999999998224 ) ;
#91 = PERSON_AND_ORGANIZATION_ROLE ( 'design_owner' ) ;
#92 = ADVANCED_FACE ( 'NONE', ( #148 ), #72, .F. ) ;
#93 = DIRECTION ( 'NONE',  ( -3.491481338843133355E-15, 1.224646799147353207E-16, -1.000000000000000000 ) ) ;
#94 = APPROVAL_DATE_TIME ( #102, #48 ) ;
#95 = CARTESIAN_POINT ( 'NONE',  ( 3.505447264198505131E-13, -1.229545386343942402E-14, 100.3999999999999915 ) ) ;
#96 = CC_DESIGN_APPROVAL ( #191, ( #206 ) ) ;
#97 = CARTESIAN_POINT ( 'NONE',  ( 3.526396152231565067E-13, -1.236893267138826732E-14, 101.0000000000000000 ) ) ;
#98 = DIRECTION ( 'NONE',  ( 0.000000000000000000, 1.000000000000000000, 0.000000000000000000 ) ) ;
#99 = DIRECTION ( 'NONE',  ( 0.000000000000000000, 1.000000000000000000, 0.000000000000000000 ) ) ;
#100 = ADVANCED_FACE ( 'NONE', ( #89, #110 ), #235, .T. ) ;
#101 = APPLICATION_CONTEXT ( 'configuration controlled 3d designs of mechanical parts and assemblies' ) ;
#102 = DATE_AND_TIME ( #178, #37 ) ;
#103 = APPROVAL_STATUS ( 'not_yet_approved' ) ;
#104 = EDGE_LOOP ( 'NONE', ( #108 ) ) ;
#105 = DATE_TIME_ROLE ( 'creation_date' ) ;
#106 = CYLINDRICAL_SURFACE ( 'NONE', #51, 3.399999999999999911 ) ;
#107 = COORDINATED_UNIVERSAL_TIME_OFFSET ( 1, 0, .AHEAD. ) ;
#108 = ORIENTED_EDGE ( 'NONE', *, *, #7, .T. ) ;
#109 = AXIS2_PLACEMENT_3D ( 'NONE', #167, #23, #27 ) ;
#110 = FACE_BOUND ( 'NONE', #10, .T. ) ;
#111 = ADVANCED_BREP_SHAPE_REPRESENTATION ( '342112', ( #46, #212, #177 ), #124 ) ;
#112 = DIRECTION ( 'NONE',  ( 0.000000000000000000, 1.000000000000000000, 0.000000000000000000 ) ) ;
#113 = FACE_OUTER_BOUND ( 'NONE', #12, .T. ) ;
#114 = ADVANCED_FACE ( 'NONE', ( #234, #146 ), #185, .T. ) ;
#115 = DIRECTION ( 'NONE',  ( 4.275831445896958607E-31, 1.000000000000000000, 1.224646799147353454E-16 ) ) ;
#116 = CLOSED_SHELL ( 'NONE', ( #92, #122, #114, #224, #180 ) ) ;
#117 = VERTEX_POINT ( 'NONE', #187 ) ;
#118 = AXIS2_PLACEMENT_3D ( 'NONE', #16, #58, #243 ) ;
#119 = UNCERTAINTY_MEASURE_WITH_UNIT (LENGTH_MEASURE( 1.000000000000000082E-05 ), #215, 'distance_accuracy_value', 'NONE');
#120 = PERSON_AND_ORGANIZATION ( #174, #26 ) ;
#121 = CALENDAR_DATE ( 2023, 28, 9 ) ;
#122 = ADVANCED_FACE ( 'NONE', ( #200, #150 ), #19, .T. ) ;
#123 = COORDINATED_UNIVERSAL_TIME_OFFSET ( 1, 0, .AHEAD. ) ;
#124 =( GEOMETRIC_REPRESENTATION_CONTEXT ( 3 ) GLOBAL_UNCERTAINTY_ASSIGNED_CONTEXT ( ( #119 ) ) GLOBAL_UNIT_ASSIGNED_CONTEXT ( ( #215, #181, #49 ) ) REPRESENTATION_CONTEXT ( 'NONE', 'WORKASPACE' ) );
#125 = PERSON_AND_ORGANIZATION_ROLE ( 'creator' ) ;
#126 = CARTESIAN_POINT ( 'NONE',  ( 5.586370142149013368E-14, -1.959434878635765131E-15, 16.00000000000000000 ) ) ;
#127 = CARTESIAN_POINT ( 'NONE',  ( 5.586370142149013368E-14, 2.549591630525155196E-32, 16.00000000000000000 ) ) ;
#128 = DIRECTION ( 'NONE',  ( -3.491481338843133355E-15, 1.224646799147353207E-16, -1.000000000000000000 ) ) ;
#129 = AXIS2_PLACEMENT_3D ( 'NONE', #126, #18, #74 ) ;
#130 = CARTESIAN_POINT ( 'NONE',  ( 0.000000000000000000, 0.000000000000000000, 0.000000000000000000 ) ) ;
#131 = EDGE_CURVE ( 'NONE', #227, #227, #90, .T. ) ;
#132 = FACE_OUTER_BOUND ( 'NONE', #198, .T. ) ;
#133 = DIRECTION ( 'NONE',  ( 4.531599869146438280E-31, 1.000000000000000000, 1.275531967630005492E-16 ) ) ;
#134 = ADVANCED_FACE ( 'NONE', ( #5 ), #42, .T. ) ;
#135 = FACE_BOUND ( 'NONE', #216, .T. ) ;
#136 = EDGE_CURVE ( 'NONE', #62, #62, #172, .T. ) ;
#137 = CARTESIAN_POINT ( 'NONE',  ( 5.828267065051214977E-14, -2.044280897733759598E-15, 16.69282032302756846 ) ) ;
#138 = SECURITY_CLASSIFICATION ( '', '', #141 ) ;
#139 = ORIENTED_EDGE ( 'NONE', *, *, #82, .T. ) ;
#140 = APPLICATION_PROTOCOL_DEFINITION ( 'international standard', 'config_control_design', 1994, #101 ) ;
#141 = SECURITY_CLASSIFICATION_LEVEL ( 'unclassified' ) ;
#142 = ORIENTED_EDGE ( 'NONE', *, *, #131, .T. ) ;
#143 = APPROVAL_DATE_TIME ( #193, #191 ) ;
#144 = ORIENTED_EDGE ( 'NONE', *, *, #226, .F. ) ;
#145 = DATE_AND_TIME ( #67, #6 ) ;
#146 = FACE_OUTER_BOUND ( 'NONE', #219, .T. ) ;
#147 = ORIENTED_EDGE ( 'NONE', *, *, #226, .T. ) ;
#148 = FACE_OUTER_BOUND ( 'NONE', #104, .T. ) ;
#149 = AXIS2_PLACEMENT_3D ( 'NONE', #137, #60, #21 ) ;
#150 = FACE_OUTER_BOUND ( 'NONE', #214, .T. ) ;
#151 = CC_DESIGN_PERSON_AND_ORGANIZATION_ASSIGNMENT ( #11, #54, ( #206 ) ) ;
#152 = AXIS2_PLACEMENT_3D ( 'NONE', #1, #170, #99 ) ;
#153 = DIRECTION ( 'NONE',  ( -3.491481338843133355E-15, 1.224646799147353207E-16, -1.000000000000000000 ) ) ;
#154 = PLANE ( 'NONE',  #15 ) ;
#155 = CARTESIAN_POINT ( 'NONE',  ( 5.586370142149013368E-14, 3.399999999999998135, 16.00000000000000000 ) ) ;
#156 = CC_DESIGN_PERSON_AND_ORGANIZATION_ASSIGNMENT ( #211, #125, ( #206 ) ) ;
#157 = APPROVAL_DATE_TIME ( #35, #44 ) ;
#158 = DIRECTION ( 'NONE',  ( 0.000000000000000000, 0.000000000000000000, 1.000000000000000000 ) ) ;
#159 = DIRECTION ( 'NONE',  ( -4.275831445896958607E-31, -1.000000000000000000, -1.224646799147353207E-16 ) ) ;
#160 = LOCAL_TIME ( 15, 33, 13.00000000000000000, #192 ) ;
#161 = DIRECTION ( 'NONE',  ( -3.491481338843133355E-15, 1.224646799147353207E-16, -1.000000000000000000 ) ) ;
#162 = APPROVAL_STATUS ( 'not_yet_approved' ) ;
#163 = PLANE ( 'NONE',  #24 ) ;
#164 = FACE_OUTER_BOUND ( 'NONE', #70, .T. ) ;
#165 = DIRECTION ( 'NONE',  ( 0.000000000000000000, 1.000000000000000000, 0.000000000000000000 ) ) ;
#166 = VERTEX_POINT ( 'NONE', #2 ) ;
#167 = CARTESIAN_POINT ( 'NONE',  ( -6.413747168845435282E-31, 2.249639673992785317E-32, -1.836970198721028948E-16 ) ) ;
#168 = CARTESIAN_POINT ( 'NONE',  ( 3.526396152231565067E-13, 1.799711739194212982E-32, 101.0000000000000000 ) ) ;
#169 = CIRCLE ( 'NONE', #196, 3.399999999999999467 ) ;
#170 = DIRECTION ( 'NONE',  ( -3.491481338843133355E-15, 1.224646799147353207E-16, -1.000000000000000000 ) ) ;
#171 = EDGE_CURVE ( 'NONE', #81, #81, #169, .T. ) ;
#172 = CIRCLE ( 'NONE', #149, 2.999999999999990230 ) ;
#173 = DESIGN_CONTEXT ( 'detailed design', #101, 'design' ) ;
#174 = PERSON ( 'UNSPECIFIED', 'UNSPECIFIED', 'UNSPECIFIED', ('UNSPECIFIED'), ('UNSPECIFIED'), ('UNSPECIFIED') ) ;
#175 = DIRECTION ( 'NONE',  ( 1.000000000000000000, 0.000000000000000000, 0.000000000000000000 ) ) ;
#176 = MECHANICAL_CONTEXT ( 'NONE', #75, 'mechanical' ) ;
#177 = AXIS2_PLACEMENT_3D ( 'NONE', #52, #158, #175 ) ;
#178 = CALENDAR_DATE ( 2023, 28, 9 ) ;
#179 = ORIENTED_EDGE ( 'NONE', *, *, #171, .T. ) ;
#180 = ADVANCED_FACE ( 'NONE', ( #25 ), #154, .F. ) ;
#181 =( NAMED_UNIT ( * ) PLANE_ANGLE_UNIT ( ) SI_UNIT ( $, .RADIAN. ) );
#182 = DIRECTION ( 'NONE',  ( -3.491481338843133355E-15, 1.224646799147353207E-16, -1.000000000000000000 ) ) ;
#183 = CC_DESIGN_APPROVAL ( #44, ( #65 ) ) ;
#184 = CARTESIAN_POINT ( 'NONE',  ( 5.586370142149013368E-14, -1.959434878635765131E-15, 16.00000000000000000 ) ) ;
#185 = CYLINDRICAL_SURFACE ( 'NONE', #210, 2.999999999999996447 ) ;
#186 = DIRECTION ( 'NONE',  ( -3.491481338843133355E-15, 1.224646799147353207E-16, -1.000000000000000000 ) ) ;
#187 = CARTESIAN_POINT ( 'NONE',  ( 3.505447264198505131E-13, 2.999999999999990674, 100.3999999999999915 ) ) ;
#188 = CARTESIAN_POINT ( 'NONE',  ( 1.396592535537251764E-15, -4.898587196589406912E-17, 0.3999999999999995226 ) ) ;
#189 = CONICAL_SURFACE ( 'NONE', #40, 2.400000000000003464, 0.7853981633974335130 ) ;
#190 = VERTEX_POINT ( 'NONE', #77 ) ;
#191 = APPROVAL ( #86, 'UNSPECIFIED' ) ;
#192 = COORDINATED_UNIVERSAL_TIME_OFFSET ( 1, 0, .AHEAD. ) ;
#193 = DATE_AND_TIME ( #69, #3 ) ;
#194 = EDGE_LOOP ( 'NONE', ( #87 ) ) ;
#195 = DATE_TIME_ROLE ( 'classification_date' ) ;
#196 = AXIS2_PLACEMENT_3D ( 'NONE', #188, #153, #133 ) ;
#197 = APPLICATION_PROTOCOL_DEFINITION ( 'international standard', 'config_control_design', 1994, #75 ) ;
#198 = EDGE_LOOP ( 'NONE', ( #144 ) ) ;
#199 = APPROVAL_ROLE ( '' ) ;
#200 = FACE_BOUND ( 'NONE', #31, .T. ) ;
#201 = CLOSED_SHELL ( 'NONE', ( #41, #22, #134, #100 ) ) ;
#202 = LOCAL_TIME ( 15, 33, 13.00000000000000000, #84 ) ;
#203 = CARTESIAN_POINT ( 'NONE',  ( 3.526396152231565067E-13, -1.236893267138826732E-14, 101.0000000000000000 ) ) ;
#204 = DIRECTION ( 'NONE',  ( -3.491481338843133355E-15, 1.224646799147353207E-16, -1.000000000000000000 ) ) ;
#205 = CARTESIAN_POINT ( 'NONE',  ( 5.586370142149013368E-14, 2.549591630525155196E-32, 16.00000000000000000 ) ) ;
#206 = PRODUCT_DEFINITION_FORMATION_WITH_SPECIFIED_SOURCE ( 'ANY', '', #218, .NOT_KNOWN. ) ;
#207 = DIRECTION ( 'NONE',  ( -3.491481338843133355E-15, 1.224646799147353207E-16, -1.000000000000000000 ) ) ;
#208 = CC_DESIGN_DATE_AND_TIME_ASSIGNMENT ( #9, #105, ( #65 ) ) ;
#209 = VERTEX_POINT ( 'NONE', #155 ) ;
#210 = AXIS2_PLACEMENT_3D ( 'NONE', #130, #204, #17 ) ;
#211 = PERSON_AND_ORGANIZATION ( #174, #26 ) ;
#212 = MANIFOLD_SOLID_BREP ( 'Corps-Déplacer/Copier1[2]', #201 ) ;
#213 = PERSON_AND_ORGANIZATION_ROLE ( 'classification_officer' ) ;
#214 = EDGE_LOOP ( 'NONE', ( #56 ) ) ;
#215 =( LENGTH_UNIT ( ) NAMED_UNIT ( * ) SI_UNIT ( .MILLI., .METRE. ) );
#216 = EDGE_LOOP ( 'NONE', ( #139 ) ) ;
#217 = ORIENTED_EDGE ( 'NONE', *, *, #136, .T. ) ;
#218 = PRODUCT ( '342112', '342112', '', ( #176 ) ) ;
#219 = EDGE_LOOP ( 'NONE', ( #39 ) ) ;
#220 = AXIS2_PLACEMENT_3D ( 'NONE', #95, #128, #34 ) ;
#221 = ORIENTED_EDGE ( 'NONE', *, *, #30, .F. ) ;
#222 = SHAPE_DEFINITION_REPRESENTATION ( #45, #111 ) ;
#223 = EDGE_LOOP ( 'NONE', ( #38 ) ) ;
#224 = ADVANCED_FACE ( 'NONE', ( #113, #135 ), #189, .T. ) ;
#225 = AXIS2_PLACEMENT_3D ( 'NONE', #240, #186, #115 ) ;
#226 = EDGE_CURVE ( 'NONE', #209, #209, #57, .T. ) ;
#227 = VERTEX_POINT ( 'NONE', #80 ) ;
#228 = DIRECTION ( 'NONE',  ( -3.491481338843133355E-15, 1.224646799147353207E-16, -1.000000000000000000 ) ) ;
#229 = CIRCLE ( 'NONE', #129, 3.400000000000000355 ) ;
#230 = AXIS2_PLACEMENT_3D ( 'NONE', #184, #93, #112 ) ;
#231 = PERSON_AND_ORGANIZATION ( #174, #26 ) ;
#232 = EDGE_LOOP ( 'NONE', ( #238 ) ) ;
#233 = CALENDAR_DATE ( 2023, 28, 9 ) ;
#234 = FACE_OUTER_BOUND ( 'NONE', #194, .T. ) ;
#235 = CONICAL_SURFACE ( 'NONE', #118, 2.999999999999998224, 0.7853981633974497223 ) ;
#236 = PERSON_AND_ORGANIZATION ( #174, #26 ) ;
#237 = PRODUCT_RELATED_PRODUCT_CATEGORY ( 'detail', '', ( #218 ) ) ;
#238 = ORIENTED_EDGE ( 'NONE', *, *, #82, .F. ) ;
#239 = PERSON_AND_ORGANIZATION ( #174, #26 ) ;
#240 = CARTESIAN_POINT ( 'NONE',  ( -1.282749433769087056E-30, 4.499279347985570634E-32, -3.673940397442057896E-16 ) ) ;
#241 = DIRECTION ( 'NONE',  ( -4.275831445896958607E-31, -1.000000000000000000, -1.224646799147353207E-16 ) ) ;
#242 = APPROVAL_PERSON_ORGANIZATION ( #239, #191, #64 ) ;
#243 = DIRECTION ( 'NONE',  ( -4.275831445896958607E-31, -1.000000000000000000, -1.224646799147353454E-16 ) ) ;
ENDSEC;
END-ISO-10303-21;
