ISO-10303-21;
HEADER;
FILE_DESCRIPTION (( 'STEP AP203' ),
    '1' );
FILE_NAME ('342102.step',
    '2023-09-28T13:33:13',
    ( '' ),
    ( '' ),
    'SwSTEP 2.0',
    'SolidWorks 2022',
    '' );
FILE_SCHEMA (( 'CONFIG_CONTROL_DESIGN' ));
ENDSEC;

DATA;
#1 = APPROVAL_ROLE ( '' ) ;
#2 = LOCAL_TIME ( 15, 33, 13.00000000000000000, #101 ) ;
#3 = VERTEX_POINT ( 'NONE', #20 ) ;
#4 = APPROVAL_STATUS ( 'not_yet_approved' ) ;
#5 = CIRCLE ( 'NONE', #137, 2.949999999999998845 ) ;
#6 = AXIS2_PLACEMENT_3D ( 'NONE', #208, #128, #164 ) ;
#7 = APPLICATION_CONTEXT ( 'configuration controlled 3d designs of mechanical parts and assemblies' ) ;
#8 = ORIENTED_EDGE ( 'NONE', *, *, #159, .T. ) ;
#9 = DATE_AND_TIME ( #217, #213 ) ;
#10 = CC_DESIGN_APPROVAL ( #97, ( #221 ) ) ;
#11 = DATE_AND_TIME ( #198, #2 ) ;
#12 = ORIENTED_EDGE ( 'NONE', *, *, #159, .F. ) ;
#13 = DIRECTION ( 'NONE',  ( 0.000000000000000000, 1.000000000000000000, 0.000000000000000000 ) ) ;
#14 = CARTESIAN_POINT ( 'NONE',  ( 3.526396152231565067E-13, -1.236893267138826732E-14, 101.0000000000000000 ) ) ;
#15 = CC_DESIGN_APPROVAL ( #88, ( #156 ) ) ;
#16 = APPROVAL_STATUS ( 'not_yet_approved' ) ;
#17 = DIRECTION ( 'NONE',  ( -3.491481338843133355E-15, 1.224646799147353207E-16, -1.000000000000000000 ) ) ;
#18 = CARTESIAN_POINT ( 'NONE',  ( 3.526396152231565067E-13, -1.236893267138826732E-14, 101.0000000000000000 ) ) ;
#19 = DIRECTION ( 'NONE',  ( -3.491481338843133355E-15, 1.224646799147353207E-16, -1.000000000000000000 ) ) ;
#20 = CARTESIAN_POINT ( 'NONE',  ( 3.505447264198505131E-13, 2.999999999999990674, 100.3999999999999915 ) ) ;
#21 = PERSON_AND_ORGANIZATION_ROLE ( 'design_owner' ) ;
#22 = EDGE_CURVE ( 'NONE', #53, #53, #5, .T. ) ;
#23 = CARTESIAN_POINT ( 'NONE',  ( 3.526396152231565067E-13, 2.399999999999990585, 101.0000000000000000 ) ) ;
#24 = AXIS2_PLACEMENT_3D ( 'NONE', #57, #37, #148 ) ;
#25 = COORDINATED_UNIVERSAL_TIME_OFFSET ( 1, 0, .AHEAD. ) ;
#26 = AXIS2_PLACEMENT_3D ( 'NONE', #70, #203, #225 ) ;
#27 = ADVANCED_FACE ( 'NONE', ( #199 ), #183, .T. ) ;
#28 = EDGE_LOOP ( 'NONE', ( #100 ) ) ;
#29 = COORDINATED_UNIVERSAL_TIME_OFFSET ( 1, 0, .AHEAD. ) ;
#30 = CONICAL_SURFACE ( 'NONE', #26, 2.949999999999998845, 0.7853981633974497223 ) ;
#31 = PERSON_AND_ORGANIZATION_ROLE ( 'design_supplier' ) ;
#32 = PERSON_AND_ORGANIZATION_ROLE ( 'creator' ) ;
#33 = DIRECTION ( 'NONE',  ( -4.275831445896958607E-31, -1.000000000000000000, -1.224646799147353207E-16 ) ) ;
#34 = CYLINDRICAL_SURFACE ( 'NONE', #59, 2.999999999999996447 ) ;
#35 = AXIS2_PLACEMENT_3D ( 'NONE', #201, #169, #170 ) ;
#36 = FACE_OUTER_BOUND ( 'NONE', #83, .T. ) ;
#37 = DIRECTION ( 'NONE',  ( -3.491481338843133355E-15, 1.224646799147353207E-16, -1.000000000000000000 ) ) ;
#38 = CIRCLE ( 'NONE', #113, 2.400000000000003464 ) ;
#39 = APPLICATION_PROTOCOL_DEFINITION ( 'international standard', 'config_control_design', 1994, #125 ) ;
#40 = EDGE_CURVE ( 'NONE', #230, #230, #96, .T. ) ;
#41 = PRODUCT_DEFINITION_SHAPE ( 'NONE', 'NONE',  #221 ) ;
#42 = EDGE_LOOP ( 'NONE', ( #139 ) ) ;
#43 = EDGE_LOOP ( 'NONE', ( #216 ) ) ;
#44 = PRODUCT_RELATED_PRODUCT_CATEGORY ( 'detail', '', ( #222 ) ) ;
#45 = ORIENTED_EDGE ( 'NONE', *, *, #22, .T. ) ;
#46 = EDGE_LOOP ( 'NONE', ( #158 ) ) ;
#47 = SHAPE_DEFINITION_REPRESENTATION ( #41, #176 ) ;
#48 = EDGE_LOOP ( 'NONE', ( #80 ) ) ;
#49 = APPROVAL_PERSON_ORGANIZATION ( #60, #97, #1 ) ;
#50 = APPROVAL_DATE_TIME ( #9, #88 ) ;
#51 = DIRECTION ( 'NONE',  ( -3.491481338843133355E-15, 1.224646799147353207E-16, -1.000000000000000000 ) ) ;
#52 = DIRECTION ( 'NONE',  ( -3.491481338843133355E-15, 1.224646799147353207E-16, -1.000000000000000000 ) ) ;
#53 = VERTEX_POINT ( 'NONE', #206 ) ;
#54 = AXIS2_PLACEMENT_3D ( 'NONE', #89, #68, #147 ) ;
#55 = CC_DESIGN_DATE_AND_TIME_ASSIGNMENT ( #184, #85, ( #119 ) ) ;
#56 = DIRECTION ( 'NONE',  ( -3.491481338843133355E-15, 1.224646799147353207E-16, -1.000000000000000000 ) ) ;
#57 = CARTESIAN_POINT ( 'NONE',  ( 3.526396152231565067E-13, 1.799711739194212982E-32, 101.0000000000000000 ) ) ;
#58 = PERSON_AND_ORGANIZATION ( #168, #205 ) ;
#59 = AXIS2_PLACEMENT_3D ( 'NONE', #67, #52, #107 ) ;
#60 = PERSON_AND_ORGANIZATION ( #168, #205 ) ;
#61 = CC_DESIGN_PERSON_AND_ORGANIZATION_ASSIGNMENT ( #239, #31, ( #156 ) ) ;
#62 = EDGE_LOOP ( 'NONE', ( #120 ) ) ;
#63 = AXIS2_PLACEMENT_3D ( 'NONE', #110, #191, #223 ) ;
#64 = PERSON_AND_ORGANIZATION ( #168, #205 ) ;
#65 = DIRECTION ( 'NONE',  ( 0.000000000000000000, 1.000000000000000000, 0.000000000000000000 ) ) ;
#66 = AXIS2_PLACEMENT_3D ( 'NONE', #138, #211, #95 ) ;
#67 = CARTESIAN_POINT ( 'NONE',  ( 0.000000000000000000, 0.000000000000000000, 0.000000000000000000 ) ) ;
#68 = DIRECTION ( 'NONE',  ( -3.491481338843133355E-15, 1.224646799147353207E-16, -1.000000000000000000 ) ) ;
#69 = ADVANCED_FACE ( 'NONE', ( #226, #146 ), #117, .T. ) ;
#70 = CARTESIAN_POINT ( 'NONE',  ( -1.261370276539602342E-30, 4.424291358852478301E-32, -3.612708057484690618E-16 ) ) ;
#71 = APPROVAL_PERSON_ORGANIZATION ( #141, #88, #215 ) ;
#72 = CARTESIAN_POINT ( 'NONE',  ( 0.000000000000000000, 0.000000000000000000, 0.000000000000000000 ) ) ;
#73 = UNCERTAINTY_MEASURE_WITH_UNIT (LENGTH_MEASURE( 1.000000000000000082E-05 ), #74, 'distance_accuracy_value', 'NONE');
#74 =( LENGTH_UNIT ( ) NAMED_UNIT ( * ) SI_UNIT ( .MILLI., .METRE. ) );
#75 = COORDINATED_UNIVERSAL_TIME_OFFSET ( 1, 0, .AHEAD. ) ;
#76 = DATE_AND_TIME ( #152, #234 ) ;
#77 = APPROVAL ( #106, 'UNSPECIFIED' ) ;
#78 = CARTESIAN_POINT ( 'NONE',  ( 1.396592535537253145E-15, 3.349999999999999645, 0.3999999999999999667 ) ) ;
#79 = CIRCLE ( 'NONE', #99, 3.350000000000000533 ) ;
#80 = ORIENTED_EDGE ( 'NONE', *, *, #150, .F. ) ;
#81 = PERSON_AND_ORGANIZATION_ROLE ( 'classification_officer' ) ;
#82 = ORIENTED_EDGE ( 'NONE', *, *, #22, .F. ) ;
#83 = EDGE_LOOP ( 'NONE', ( #121 ) ) ;
#84 = ADVANCED_FACE ( 'NONE', ( #166, #145 ), #30, .T. ) ;
#85 = DATE_TIME_ROLE ( 'classification_date' ) ;
#86 = DIRECTION ( 'NONE',  ( 4.275831445896958607E-31, 1.000000000000000000, 1.224646799147353207E-16 ) ) ;
#87 = FACE_OUTER_BOUND ( 'NONE', #62, .T. ) ;
#88 = APPROVAL ( #16, 'UNSPECIFIED' ) ;
#89 = CARTESIAN_POINT ( 'NONE',  ( 1.396592535537251764E-15, -4.898587196589406912E-17, 0.3999999999999995226 ) ) ;
#90 = DIRECTION ( 'NONE',  ( -3.491481338843133355E-15, 1.224646799147353207E-16, -1.000000000000000000 ) ) ;
#91 = CARTESIAN_POINT ( 'NONE',  ( -6.306851382698011711E-31, 2.212145679426239150E-32, -1.806354028742345309E-16 ) ) ;
#92 =( GEOMETRIC_REPRESENTATION_CONTEXT ( 3 ) GLOBAL_UNCERTAINTY_ASSIGNED_CONTEXT ( ( #73 ) ) GLOBAL_UNIT_ASSIGNED_CONTEXT ( ( #74, #174, #155 ) ) REPRESENTATION_CONTEXT ( 'NONE', 'WORKASPACE' ) );
#93 = CC_DESIGN_PERSON_AND_ORGANIZATION_ASSIGNMENT ( #64, #32, ( #156 ) ) ;
#94 = APPLICATION_PROTOCOL_DEFINITION ( 'international standard', 'config_control_design', 1994, #7 ) ;
#95 = DIRECTION ( 'NONE',  ( 1.000000000000000000, 0.000000000000000000, 0.000000000000000000 ) ) ;
#96 = CIRCLE ( 'NONE', #233, 2.999999999999990230 ) ;
#97 = APPROVAL ( #4, 'UNSPECIFIED' ) ;
#98 = CALENDAR_DATE ( 2023, 28, 9 ) ;
#99 = AXIS2_PLACEMENT_3D ( 'NONE', #105, #238, #151 ) ;
#100 = ORIENTED_EDGE ( 'NONE', *, *, #40, .T. ) ;
#101 = COORDINATED_UNIVERSAL_TIME_OFFSET ( 1, 0, .AHEAD. ) ;
#102 = EDGE_LOOP ( 'NONE', ( #12 ) ) ;
#103 = SECURITY_CLASSIFICATION_LEVEL ( 'unclassified' ) ;
#104 = PLANE ( 'NONE',  #165 ) ;
#105 = CARTESIAN_POINT ( 'NONE',  ( 5.586370142149013368E-14, -1.959434878635765131E-15, 16.00000000000000000 ) ) ;
#106 = APPROVAL_STATUS ( 'not_yet_approved' ) ;
#107 = DIRECTION ( 'NONE',  ( 4.275831445896958607E-31, 1.000000000000000000, 1.224646799147353207E-16 ) ) ;
#108 = CIRCLE ( 'NONE', #6, 3.350000000000000533 ) ;
#109 = DIRECTION ( 'NONE',  ( 0.000000000000000000, 1.000000000000000000, 0.000000000000000000 ) ) ;
#110 = CARTESIAN_POINT ( 'NONE',  ( 5.586370142149013368E-14, -1.959434878635765131E-15, 16.00000000000000000 ) ) ;
#111 = CLOSED_SHELL ( 'NONE', ( #115, #27, #218, #84 ) ) ;
#112 = CC_DESIGN_PERSON_AND_ORGANIZATION_ASSIGNMENT ( #200, #81, ( #119 ) ) ;
#113 = AXIS2_PLACEMENT_3D ( 'NONE', #14, #90, #13 ) ;
#114 = VERTEX_POINT ( 'NONE', #173 ) ;
#115 = ADVANCED_FACE ( 'NONE', ( #130, #167 ), #126, .T. ) ;
#116 = MECHANICAL_CONTEXT ( 'NONE', #125, 'mechanical' ) ;
#117 = CONICAL_SURFACE ( 'NONE', #63, 3.350000000000000533, 0.5235987755983012581 ) ;
#118 = PERSON_AND_ORGANIZATION ( #168, #205 ) ;
#119 = SECURITY_CLASSIFICATION ( '', '', #103 ) ;
#120 = ORIENTED_EDGE ( 'NONE', *, *, #40, .F. ) ;
#121 = ORIENTED_EDGE ( 'NONE', *, *, #196, .F. ) ;
#122 = CC_DESIGN_PERSON_AND_ORGANIZATION_ASSIGNMENT ( #118, #195, ( #221 ) ) ;
#123 = DIRECTION ( 'NONE',  ( 4.275831445896958607E-31, 1.000000000000000000, 1.224646799147353207E-16 ) ) ;
#124 = CARTESIAN_POINT ( 'NONE',  ( -1.261370276539602342E-30, 4.424291358852478301E-32, -3.612708057484690618E-16 ) ) ;
#125 = APPLICATION_CONTEXT ( 'configuration controlled 3d designs of mechanical parts and assemblies' ) ;
#126 = CYLINDRICAL_SURFACE ( 'NONE', #129, 3.350000000000000089 ) ;
#127 = DIRECTION ( 'NONE',  ( 3.491481338843133355E-15, -1.224646799147353207E-16, 1.000000000000000000 ) ) ;
#128 = DIRECTION ( 'NONE',  ( -3.491481338843133355E-15, 1.224646799147353207E-16, -1.000000000000000000 ) ) ;
#129 = AXIS2_PLACEMENT_3D ( 'NONE', #72, #56, #241 ) ;
#130 = FACE_OUTER_BOUND ( 'NONE', #232, .T. ) ;
#131 = MANIFOLD_SOLID_BREP ( 'Corps-Déplacer/Copier1[2]', #111 ) ;
#132 = FACE_OUTER_BOUND ( 'NONE', #143, .T. ) ;
#133 = MANIFOLD_SOLID_BREP ( 'Corps-Déplacer/Copier1[1]', #204 ) ;
#134 = CARTESIAN_POINT ( 'NONE',  ( 5.586370142149013368E-14, 3.349999999999998312, 16.00000000000000000 ) ) ;
#135 = ADVANCED_FACE ( 'NONE', ( #190 ), #207, .F. ) ;
#136 = EDGE_LOOP ( 'NONE', ( #161 ) ) ;
#137 = AXIS2_PLACEMENT_3D ( 'NONE', #124, #214, #123 ) ;
#138 = CARTESIAN_POINT ( 'NONE',  ( 0.000000000000000000, 0.000000000000000000, 0.000000000000000000 ) ) ;
#139 = ORIENTED_EDGE ( 'NONE', *, *, #243, .F. ) ;
#140 = ADVANCED_FACE ( 'NONE', ( #237, #240 ), #209, .T. ) ;
#141 = PERSON_AND_ORGANIZATION ( #168, #205 ) ;
#142 = CALENDAR_DATE ( 2023, 28, 9 ) ;
#143 = EDGE_LOOP ( 'NONE', ( #45 ) ) ;
#144 = CIRCLE ( 'NONE', #171, 3.000000000000002665 ) ;
#145 = FACE_BOUND ( 'NONE', #231, .T. ) ;
#146 = FACE_OUTER_BOUND ( 'NONE', #48, .T. ) ;
#147 = DIRECTION ( 'NONE',  ( 4.024331227077806587E-31, 1.000000000000000000, 1.294569758191647155E-16 ) ) ;
#148 = DIRECTION ( 'NONE',  ( 4.275831445896958607E-31, 1.000000000000000000, 1.224646799147353207E-16 ) ) ;
#149 = CC_DESIGN_SECURITY_CLASSIFICATION ( #119, ( #156 ) ) ;
#150 = EDGE_CURVE ( 'NONE', #114, #114, #79, .T. ) ;
#151 = DIRECTION ( 'NONE',  ( 0.000000000000000000, 1.000000000000000000, 0.000000000000000000 ) ) ;
#152 = CALENDAR_DATE ( 2023, 28, 9 ) ;
#153 = CC_DESIGN_APPROVAL ( #77, ( #119 ) ) ;
#154 = VERTEX_POINT ( 'NONE', #134 ) ;
#155 =( NAMED_UNIT ( * ) SI_UNIT ( $, .STERADIAN. ) SOLID_ANGLE_UNIT ( ) );
#156 = PRODUCT_DEFINITION_FORMATION_WITH_SPECIFIED_SOURCE ( 'ANY', '', #222, .NOT_KNOWN. ) ;
#157 = ADVANCED_FACE ( 'NONE', ( #36 ), #202, .F. ) ;
#158 = ORIENTED_EDGE ( 'NONE', *, *, #243, .T. ) ;
#159 = EDGE_CURVE ( 'NONE', #154, #154, #108, .T. ) ;
#160 = AXIS2_PLACEMENT_3D ( 'NONE', #242, #127, #33 ) ;
#161 = ORIENTED_EDGE ( 'NONE', *, *, #186, .T. ) ;
#162 = DATE_TIME_ROLE ( 'creation_date' ) ;
#163 = PERSON_AND_ORGANIZATION ( #168, #205 ) ;
#164 = DIRECTION ( 'NONE',  ( 0.000000000000000000, 1.000000000000000000, 0.000000000000000000 ) ) ;
#165 = AXIS2_PLACEMENT_3D ( 'NONE', #91, #185, #86 ) ;
#166 = FACE_OUTER_BOUND ( 'NONE', #46, .T. ) ;
#167 = FACE_OUTER_BOUND ( 'NONE', #42, .T. ) ;
#168 = PERSON ( 'UNSPECIFIED', 'UNSPECIFIED', 'UNSPECIFIED', ('UNSPECIFIED'), ('UNSPECIFIED'), ('UNSPECIFIED') ) ;
#169 = DIRECTION ( 'NONE',  ( 3.491481338843133355E-15, -1.224646799147353207E-16, 1.000000000000000000 ) ) ;
#170 = DIRECTION ( 'NONE',  ( -4.275831445896958607E-31, -1.000000000000000000, -1.224646799147353207E-16 ) ) ;
#171 = AXIS2_PLACEMENT_3D ( 'NONE', #188, #19, #109 ) ;
#172 = VERTEX_POINT ( 'NONE', #23 ) ;
#173 = CARTESIAN_POINT ( 'NONE',  ( 5.586370142149013368E-14, 3.349999999999998312, 16.00000000000000000 ) ) ;
#174 =( NAMED_UNIT ( * ) PLANE_ANGLE_UNIT ( ) SI_UNIT ( $, .RADIAN. ) );
#175 = DATE_AND_TIME ( #98, #228 ) ;
#176 = ADVANCED_BREP_SHAPE_REPRESENTATION ( '342102', ( #133, #131, #66 ), #92 ) ;
#177 = AXIS2_PLACEMENT_3D ( 'NONE', #18, #17, #219 ) ;
#178 = EDGE_LOOP ( 'NONE', ( #235 ) ) ;
#179 = CC_DESIGN_PERSON_AND_ORGANIZATION_ASSIGNMENT ( #58, #21, ( #222 ) ) ;
#180 = EDGE_LOOP ( 'NONE', ( #197 ) ) ;
#181 = APPROVAL_DATE_TIME ( #11, #77 ) ;
#182 = CIRCLE ( 'NONE', #54, 3.349999999999999645 ) ;
#183 = PLANE ( 'NONE',  #35 ) ;
#184 = DATE_AND_TIME ( #142, #224 ) ;
#185 = DIRECTION ( 'NONE',  ( -3.491481338843133355E-15, 1.224646799147353207E-16, -1.000000000000000000 ) ) ;
#186 = EDGE_CURVE ( 'NONE', #3, #3, #144, .T. ) ;
#187 = COORDINATED_UNIVERSAL_TIME_OFFSET ( 1, 0, .AHEAD. ) ;
#188 = CARTESIAN_POINT ( 'NONE',  ( 3.505447264198505131E-13, -1.229545386343942402E-14, 100.3999999999999915 ) ) ;
#189 = CARTESIAN_POINT ( 'NONE',  ( 5.798029949688441196E-14, -2.033675145346510733E-15, 16.60621778264912152 ) ) ;
#190 = FACE_OUTER_BOUND ( 'NONE', #178, .T. ) ;
#191 = DIRECTION ( 'NONE',  ( -3.491481338843133355E-15, 1.224646799147353207E-16, -1.000000000000000000 ) ) ;
#192 = CARTESIAN_POINT ( 'NONE',  ( 5.798029949688441196E-14, 2.999999999999988010, 16.60621778264912152 ) ) ;
#193 = APPROVAL_PERSON_ORGANIZATION ( #163, #77, #236 ) ;
#194 = VERTEX_POINT ( 'NONE', #78 ) ;
#195 = PERSON_AND_ORGANIZATION_ROLE ( 'creator' ) ;
#196 = EDGE_CURVE ( 'NONE', #172, #172, #38, .T. ) ;
#197 = ORIENTED_EDGE ( 'NONE', *, *, #186, .F. ) ;
#198 = CALENDAR_DATE ( 2023, 28, 9 ) ;
#199 = FACE_OUTER_BOUND ( 'NONE', #102, .T. ) ;
#200 = PERSON_AND_ORGANIZATION ( #168, #205 ) ;
#201 = CARTESIAN_POINT ( 'NONE',  ( 5.586370142149013368E-14, 2.512097635958608483E-32, 16.00000000000000000 ) ) ;
#202 = PLANE ( 'NONE',  #24 ) ;
#203 = DIRECTION ( 'NONE',  ( 3.491481338843133355E-15, -1.224646799147353207E-16, 1.000000000000000000 ) ) ;
#204 = CLOSED_SHELL ( 'NONE', ( #135, #69, #227, #140, #157 ) ) ;
#205 = ORGANIZATION ( 'UNSPECIFIED', 'UNSPECIFIED', '' ) ;
#206 = CARTESIAN_POINT ( 'NONE',  ( 0.000000000000000000, 2.949999999999998845, 0.000000000000000000 ) ) ;
#207 = PLANE ( 'NONE',  #160 ) ;
#208 = CARTESIAN_POINT ( 'NONE',  ( 5.586370142149013368E-14, -1.959434878635765131E-15, 16.00000000000000000 ) ) ;
#209 = CONICAL_SURFACE ( 'NONE', #177, 2.400000000000003464, 0.7853981633974335130 ) ;
#210 = DESIGN_CONTEXT ( 'detailed design', #7, 'design' ) ;
#211 = DIRECTION ( 'NONE',  ( 0.000000000000000000, 0.000000000000000000, 1.000000000000000000 ) ) ;
#212 = APPROVAL_DATE_TIME ( #76, #97 ) ;
#213 = LOCAL_TIME ( 15, 33, 13.00000000000000000, #187 ) ;
#214 = DIRECTION ( 'NONE',  ( -3.491481338843133355E-15, 1.224646799147353207E-16, -1.000000000000000000 ) ) ;
#215 = APPROVAL_ROLE ( '' ) ;
#216 = ORIENTED_EDGE ( 'NONE', *, *, #196, .T. ) ;
#217 = CALENDAR_DATE ( 2023, 28, 9 ) ;
#218 = ADVANCED_FACE ( 'NONE', ( #132 ), #104, .T. ) ;
#219 = DIRECTION ( 'NONE',  ( 0.000000000000000000, 1.000000000000000000, 0.000000000000000000 ) ) ;
#220 = FACE_OUTER_BOUND ( 'NONE', #136, .T. ) ;
#221 = PRODUCT_DEFINITION ( 'UNKNOWN', '', #156, #210 ) ;
#222 = PRODUCT ( '342102', '342102', '', ( #116 ) ) ;
#223 = DIRECTION ( 'NONE',  ( 0.000000000000000000, 1.000000000000000000, 0.000000000000000000 ) ) ;
#224 = LOCAL_TIME ( 15, 33, 13.00000000000000000, #29 ) ;
#225 = DIRECTION ( 'NONE',  ( -4.275831445896958607E-31, -1.000000000000000000, -1.224646799147353207E-16 ) ) ;
#226 = FACE_BOUND ( 'NONE', #28, .T. ) ;
#227 = ADVANCED_FACE ( 'NONE', ( #87, #220 ), #34, .T. ) ;
#228 = LOCAL_TIME ( 15, 33, 13.00000000000000000, #25 ) ;
#229 = CC_DESIGN_DATE_AND_TIME_ASSIGNMENT ( #175, #162, ( #221 ) ) ;
#230 = VERTEX_POINT ( 'NONE', #192 ) ;
#231 = EDGE_LOOP ( 'NONE', ( #82 ) ) ;
#232 = EDGE_LOOP ( 'NONE', ( #8 ) ) ;
#233 = AXIS2_PLACEMENT_3D ( 'NONE', #189, #51, #65 ) ;
#234 = LOCAL_TIME ( 15, 33, 13.00000000000000000, #75 ) ;
#235 = ORIENTED_EDGE ( 'NONE', *, *, #150, .T. ) ;
#236 = APPROVAL_ROLE ( '' ) ;
#237 = FACE_OUTER_BOUND ( 'NONE', #180, .T. ) ;
#238 = DIRECTION ( 'NONE',  ( -3.491481338843133355E-15, 1.224646799147353207E-16, -1.000000000000000000 ) ) ;
#239 = PERSON_AND_ORGANIZATION ( #168, #205 ) ;
#240 = FACE_BOUND ( 'NONE', #43, .T. ) ;
#241 = DIRECTION ( 'NONE',  ( 4.275831445896958607E-31, 1.000000000000000000, 1.224646799147353207E-16 ) ) ;
#242 = CARTESIAN_POINT ( 'NONE',  ( 5.586370142149013368E-14, 2.512097635958608483E-32, 16.00000000000000000 ) ) ;
#243 = EDGE_CURVE ( 'NONE', #194, #194, #182, .T. ) ;
ENDSEC;
END-ISO-10303-21;
