ISO-10303-21;
HEADER;
FILE_DESCRIPTION (( 'STEP AP203' ),
    '1' );
FILE_NAME ('342092.step',
    '2023-09-28T13:33:12',
    ( '' ),
    ( '' ),
    'SwSTEP 2.0',
    'SolidWorks 2022',
    '' );
FILE_SCHEMA (( 'CONFIG_CONTROL_DESIGN' ));
ENDSEC;

DATA;
#1 = CALENDAR_DATE ( 2023, 28, 9 ) ;
#2 = CONICAL_SURFACE ( 'NONE', #135, 2.899999999999998579, 0.7853981633974501664 ) ;
#3 = SHAPE_DEFINITION_REPRESENTATION ( #45, #106 ) ;
#4 = CC_DESIGN_APPROVAL ( #170, ( #171 ) ) ;
#5 = CC_DESIGN_PERSON_AND_ORGANIZATION_ASSIGNMENT ( #208, #168, ( #216 ) ) ;
#6 = COORDINATED_UNIVERSAL_TIME_OFFSET ( 1, 0, .AHEAD. ) ;
#7 = DIRECTION ( 'NONE',  ( 1.000000000000000000, 0.000000000000000000, 0.000000000000000000 ) ) ;
#8 = ORIENTED_EDGE ( 'NONE', *, *, #81, .T. ) ;
#9 = CYLINDRICAL_SURFACE ( 'NONE', #89, 3.299999999999999822 ) ;
#10 = EDGE_LOOP ( 'NONE', ( #138 ) ) ;
#11 = PRODUCT_RELATED_PRODUCT_CATEGORY ( 'detail', '', ( #66 ) ) ;
#12 = FACE_BOUND ( 'NONE', #133, .T. ) ;
#13 = CARTESIAN_POINT ( 'NONE',  ( 1.396592535537253342E-15, 3.299999999999999822, 0.3999999999999999667 ) ) ;
#14 = FACE_BOUND ( 'NONE', #100, .T. ) ;
#15 = DIRECTION ( 'NONE',  ( 3.491481338843133355E-15, -1.224646799147353207E-16, 1.000000000000000000 ) ) ;
#16 = CARTESIAN_POINT ( 'NONE',  ( -6.199955596550586389E-31, 2.174651684859692437E-32, -1.775737858763661423E-16 ) ) ;
#17 =( NAMED_UNIT ( * ) SI_UNIT ( $, .STERADIAN. ) SOLID_ANGLE_UNIT ( ) );
#18 = AXIS2_PLACEMENT_3D ( 'NONE', #101, #87, #57 ) ;
#19 = APPROVAL_STATUS ( 'not_yet_approved' ) ;
#20 = COORDINATED_UNIVERSAL_TIME_OFFSET ( 1, 0, .AHEAD. ) ;
#21 = EDGE_LOOP ( 'NONE', ( #154 ) ) ;
#22 = APPROVAL_ROLE ( '' ) ;
#23 = ORIENTED_EDGE ( 'NONE', *, *, #86, .F. ) ;
#24 = APPROVAL_ROLE ( '' ) ;
#25 = ORGANIZATION ( 'UNSPECIFIED', 'UNSPECIFIED', '' ) ;
#26 = PERSON ( 'UNSPECIFIED', 'UNSPECIFIED', 'UNSPECIFIED', ('UNSPECIFIED'), ('UNSPECIFIED'), ('UNSPECIFIED') ) ;
#27 = EDGE_CURVE ( 'NONE', #238, #238, #132, .T. ) ;
#28 = DIRECTION ( 'NONE',  ( 4.275831445896958607E-31, 1.000000000000000000, 1.224646799147353207E-16 ) ) ;
#29 = CARTESIAN_POINT ( 'NONE',  ( 1.396592535537251962E-15, -4.898587196589407529E-17, 0.3999999999999995781 ) ) ;
#30 = DIRECTION ( 'NONE',  ( 3.491481338843133355E-15, -1.224646799147353207E-16, 1.000000000000000000 ) ) ;
#31 = FACE_OUTER_BOUND ( 'NONE', #205, .T. ) ;
#32 = AXIS2_PLACEMENT_3D ( 'NONE', #134, #210, #48 ) ;
#33 = PLANE ( 'NONE',  #123 ) ;
#34 = VERTEX_POINT ( 'NONE', #218 ) ;
#35 = DIRECTION ( 'NONE',  ( -3.491481338843133355E-15, 1.224646799147353207E-16, -1.000000000000000000 ) ) ;
#36 =( NAMED_UNIT ( * ) PLANE_ANGLE_UNIT ( ) SI_UNIT ( $, .RADIAN. ) );
#37 = MECHANICAL_CONTEXT ( 'NONE', #112, 'mechanical' ) ;
#38 = AXIS2_PLACEMENT_3D ( 'NONE', #117, #83, #209 ) ;
#39 = CONICAL_SURFACE ( 'NONE', #70, 3.300000000000000266, 0.5235987755982995928 ) ;
#40 = PERSON_AND_ORGANIZATION_ROLE ( 'classification_officer' ) ;
#41 = ADVANCED_FACE ( 'NONE', ( #172, #49 ), #47, .T. ) ;
#42 = CALENDAR_DATE ( 2023, 28, 9 ) ;
#43 = APPROVAL_PERSON_ORGANIZATION ( #59, #44, #24 ) ;
#44 = APPROVAL ( #107, 'UNSPECIFIED' ) ;
#45 = PRODUCT_DEFINITION_SHAPE ( 'NONE', 'NONE',  #103 ) ;
#46 = UNCERTAINTY_MEASURE_WITH_UNIT (LENGTH_MEASURE( 1.000000000000000082E-05 ), #124, 'distance_accuracy_value', 'NONE');
#47 = CYLINDRICAL_SURFACE ( 'NONE', #38, 2.999999999999996447 ) ;
#48 = DIRECTION ( 'NONE',  ( 0.000000000000000000, 1.000000000000000000, 0.000000000000000000 ) ) ;
#49 = FACE_OUTER_BOUND ( 'NONE', #21, .T. ) ;
#50 = ORIENTED_EDGE ( 'NONE', *, *, #27, .F. ) ;
#51 = AXIS2_PLACEMENT_3D ( 'NONE', #104, #15, #141 ) ;
#52 = CIRCLE ( 'NONE', #62, 3.000000000000002665 ) ;
#53 = DIRECTION ( 'NONE',  ( 4.275831445896958607E-31, 1.000000000000000000, 1.224646799147353207E-16 ) ) ;
#54 = VERTEX_POINT ( 'NONE', #163 ) ;
#55 = FACE_OUTER_BOUND ( 'NONE', #119, .T. ) ;
#56 = CC_DESIGN_APPROVAL ( #125, ( #103 ) ) ;
#57 = DIRECTION ( 'NONE',  ( 0.000000000000000000, 1.000000000000000000, 0.000000000000000000 ) ) ;
#58 = PERSON_AND_ORGANIZATION ( #26, #25 ) ;
#59 = PERSON_AND_ORGANIZATION ( #26, #25 ) ;
#60 = CALENDAR_DATE ( 2023, 28, 9 ) ;
#61 = APPROVAL_STATUS ( 'not_yet_approved' ) ;
#62 = AXIS2_PLACEMENT_3D ( 'NONE', #69, #126, #164 ) ;
#63 = ORIENTED_EDGE ( 'NONE', *, *, #153, .T. ) ;
#64 = DIRECTION ( 'NONE',  ( 0.000000000000000000, 1.000000000000000000, 0.000000000000000000 ) ) ;
#65 = LOCAL_TIME ( 15, 33, 12.00000000000000000, #6 ) ;
#66 = PRODUCT ( '342092', '342092', '', ( #37 ) ) ;
#67 = EDGE_LOOP ( 'NONE', ( #82 ) ) ;
#68 = ADVANCED_FACE ( 'NONE', ( #191, #31 ), #9, .T. ) ;
#69 = CARTESIAN_POINT ( 'NONE',  ( 3.505447264198505131E-13, -1.229545386343942402E-14, 100.3999999999999915 ) ) ;
#70 = AXIS2_PLACEMENT_3D ( 'NONE', #240, #121, #195 ) ;
#71 = DIRECTION ( 'NONE',  ( 4.275831445896958607E-31, 1.000000000000000000, 1.224646799147353207E-16 ) ) ;
#72 = CARTESIAN_POINT ( 'NONE',  ( 5.586370142149013368E-14, 3.299999999999998046, 16.00000000000000000 ) ) ;
#73 = CARTESIAN_POINT ( 'NONE',  ( 5.767792834325667415E-14, 2.999999999999988010, 16.51961524227068168 ) ) ;
#74 = PERSON_AND_ORGANIZATION_ROLE ( 'creator' ) ;
#75 = DATE_AND_TIME ( #1, #84 ) ;
#76 = EDGE_LOOP ( 'NONE', ( #8 ) ) ;
#77 = AXIS2_PLACEMENT_3D ( 'NONE', #231, #235, #64 ) ;
#78 = APPROVAL_DATE_TIME ( #167, #170 ) ;
#79 = CARTESIAN_POINT ( 'NONE',  ( 0.000000000000000000, 0.000000000000000000, 0.000000000000000000 ) ) ;
#80 = AXIS2_PLACEMENT_3D ( 'NONE', #88, #200, #91 ) ;
#81 = EDGE_CURVE ( 'NONE', #34, #34, #188, .T. ) ;
#82 = ORIENTED_EDGE ( 'NONE', *, *, #86, .T. ) ;
#83 = DIRECTION ( 'NONE',  ( -3.491481338843133355E-15, 1.224646799147353207E-16, -1.000000000000000000 ) ) ;
#84 = LOCAL_TIME ( 15, 33, 12.00000000000000000, #150 ) ;
#85 = ORIENTED_EDGE ( 'NONE', *, *, #27, .T. ) ;
#86 = EDGE_CURVE ( 'NONE', #92, #92, #224, .T. ) ;
#87 = DIRECTION ( 'NONE',  ( -3.491481338843133355E-15, 1.224646799147353207E-16, -1.000000000000000000 ) ) ;
#88 = CARTESIAN_POINT ( 'NONE',  ( 3.526396152231565067E-13, -1.236893267138826732E-14, 101.0000000000000000 ) ) ;
#89 = AXIS2_PLACEMENT_3D ( 'NONE', #155, #193, #28 ) ;
#90 = ADVANCED_FACE ( 'NONE', ( #175, #12 ), #2, .T. ) ;
#91 = DIRECTION ( 'NONE',  ( 0.000000000000000000, 1.000000000000000000, 0.000000000000000000 ) ) ;
#92 = VERTEX_POINT ( 'NONE', #73 ) ;
#93 = DATE_AND_TIME ( #60, #199 ) ;
#94 = ADVANCED_FACE ( 'NONE', ( #215 ), #190, .T. ) ;
#95 = COORDINATED_UNIVERSAL_TIME_OFFSET ( 1, 0, .AHEAD. ) ;
#96 = CIRCLE ( 'NONE', #192, 2.899999999999998579 ) ;
#97 = CIRCLE ( 'NONE', #18, 3.300000000000000266 ) ;
#98 = ORIENTED_EDGE ( 'NONE', *, *, #177, .F. ) ;
#99 = EDGE_LOOP ( 'NONE', ( #23 ) ) ;
#100 = EDGE_LOOP ( 'NONE', ( #187 ) ) ;
#101 = CARTESIAN_POINT ( 'NONE',  ( 5.586370142149013368E-14, -1.959434878635765131E-15, 16.00000000000000000 ) ) ;
#102 = FACE_OUTER_BOUND ( 'NONE', #148, .T. ) ;
#103 = PRODUCT_DEFINITION ( 'UNKNOWN', '', #216, #113 ) ;
#104 = CARTESIAN_POINT ( 'NONE',  ( 5.586370142149013368E-14, 2.474603641392062316E-32, 16.00000000000000000 ) ) ;
#105 = CARTESIAN_POINT ( 'NONE',  ( 3.526396152231565067E-13, -1.236893267138826732E-14, 101.0000000000000000 ) ) ;
#106 = ADVANCED_BREP_SHAPE_REPRESENTATION ( '342092', ( #130, #207, #182 ), #151 ) ;
#107 = APPROVAL_STATUS ( 'not_yet_approved' ) ;
#108 = AXIS2_PLACEMENT_3D ( 'NONE', #29, #160, #233 ) ;
#109 = APPROVAL_PERSON_ORGANIZATION ( #110, #170, #22 ) ;
#110 = PERSON_AND_ORGANIZATION ( #26, #25 ) ;
#111 = PERSON_AND_ORGANIZATION ( #26, #25 ) ;
#112 = APPLICATION_CONTEXT ( 'configuration controlled 3d designs of mechanical parts and assemblies' ) ;
#113 = DESIGN_CONTEXT ( 'detailed design', #206, 'design' ) ;
#114 = CARTESIAN_POINT ( 'NONE',  ( -1.239991119310117278E-30, 4.349303369719384873E-32, -3.551475717527322846E-16 ) ) ;
#115 = EDGE_LOOP ( 'NONE', ( #139 ) ) ;
#116 = ADVANCED_FACE ( 'NONE', ( #201 ), #33, .F. ) ;
#117 = CARTESIAN_POINT ( 'NONE',  ( 0.000000000000000000, 0.000000000000000000, 0.000000000000000000 ) ) ;
#118 = LOCAL_TIME ( 15, 33, 12.00000000000000000, #95 ) ;
#119 = EDGE_LOOP ( 'NONE', ( #203 ) ) ;
#120 = FACE_OUTER_BOUND ( 'NONE', #230, .T. ) ;
#121 = DIRECTION ( 'NONE',  ( -3.491481338843133355E-15, 1.224646799147353207E-16, -1.000000000000000000 ) ) ;
#122 = PLANE ( 'NONE',  #152 ) ;
#123 = AXIS2_PLACEMENT_3D ( 'NONE', #143, #35, #71 ) ;
#124 =( LENGTH_UNIT ( ) NAMED_UNIT ( * ) SI_UNIT ( .MILLI., .METRE. ) );
#125 = APPROVAL ( #19, 'UNSPECIFIED' ) ;
#126 = DIRECTION ( 'NONE',  ( -3.491481338843133355E-15, 1.224646799147353207E-16, -1.000000000000000000 ) ) ;
#127 = DATE_TIME_ROLE ( 'creation_date' ) ;
#128 = PERSON_AND_ORGANIZATION_ROLE ( 'design_supplier' ) ;
#129 = ADVANCED_FACE ( 'NONE', ( #55, #14 ), #232, .T. ) ;
#130 = MANIFOLD_SOLID_BREP ( 'Corps-Déplacer/Copier1[1]', #241 ) ;
#131 = APPROVAL_ROLE ( '' ) ;
#132 = CIRCLE ( 'NONE', #108, 3.299999999999999822 ) ;
#133 = EDGE_LOOP ( 'NONE', ( #225 ) ) ;
#134 = CARTESIAN_POINT ( 'NONE',  ( 5.767792834325667415E-14, -2.023069392959261869E-15, 16.51961524227068168 ) ) ;
#135 = AXIS2_PLACEMENT_3D ( 'NONE', #114, #156, #212 ) ;
#136 = APPLICATION_PROTOCOL_DEFINITION ( 'international standard', 'config_control_design', 1994, #206 ) ;
#137 = LOCAL_TIME ( 15, 33, 12.00000000000000000, #20 ) ;
#138 = ORIENTED_EDGE ( 'NONE', *, *, #177, .T. ) ;
#139 = ORIENTED_EDGE ( 'NONE', *, *, #234, .F. ) ;
#140 = DIRECTION ( 'NONE',  ( -3.491481338843133355E-15, 1.224646799147353207E-16, -1.000000000000000000 ) ) ;
#141 = DIRECTION ( 'NONE',  ( -4.275831445896958607E-31, -1.000000000000000000, -1.224646799147353207E-16 ) ) ;
#142 = CARTESIAN_POINT ( 'NONE',  ( 3.526396152231565067E-13, 2.399999999999990585, 101.0000000000000000 ) ) ;
#143 = CARTESIAN_POINT ( 'NONE',  ( 3.526396152231565067E-13, 1.799711739194212982E-32, 101.0000000000000000 ) ) ;
#144 = FACE_BOUND ( 'NONE', #67, .T. ) ;
#145 = APPROVAL_DATE_TIME ( #93, #44 ) ;
#146 = COORDINATED_UNIVERSAL_TIME_OFFSET ( 1, 0, .AHEAD. ) ;
#147 = AXIS2_PLACEMENT_3D ( 'NONE', #174, #30, #217 ) ;
#148 = EDGE_LOOP ( 'NONE', ( #63 ) ) ;
#149 = DATE_AND_TIME ( #184, #65 ) ;
#150 = COORDINATED_UNIVERSAL_TIME_OFFSET ( 1, 0, .AHEAD. ) ;
#151 =( GEOMETRIC_REPRESENTATION_CONTEXT ( 3 ) GLOBAL_UNCERTAINTY_ASSIGNED_CONTEXT ( ( #46 ) ) GLOBAL_UNIT_ASSIGNED_CONTEXT ( ( #124, #36, #17 ) ) REPRESENTATION_CONTEXT ( 'NONE', 'WORKASPACE' ) );
#152 = AXIS2_PLACEMENT_3D ( 'NONE', #16, #178, #219 ) ;
#153 = EDGE_CURVE ( 'NONE', #54, #54, #96, .T. ) ;
#154 = ORIENTED_EDGE ( 'NONE', *, *, #173, .T. ) ;
#155 = CARTESIAN_POINT ( 'NONE',  ( 0.000000000000000000, 0.000000000000000000, 0.000000000000000000 ) ) ;
#156 = DIRECTION ( 'NONE',  ( 3.491481338843133355E-15, -1.224646799147353207E-16, 1.000000000000000000 ) ) ;
#157 = CC_DESIGN_PERSON_AND_ORGANIZATION_ASSIGNMENT ( #202, #128, ( #216 ) ) ;
#158 = CIRCLE ( 'NONE', #80, 2.400000000000003464 ) ;
#159 = EDGE_LOOP ( 'NONE', ( #85 ) ) ;
#160 = DIRECTION ( 'NONE',  ( -3.491481338843133355E-15, 1.224646799147353207E-16, -1.000000000000000000 ) ) ;
#161 = VERTEX_POINT ( 'NONE', #142 ) ;
#162 = PLANE ( 'NONE',  #51 ) ;
#163 = CARTESIAN_POINT ( 'NONE',  ( 0.000000000000000000, 2.899999999999998579, 0.000000000000000000 ) ) ;
#164 = DIRECTION ( 'NONE',  ( 0.000000000000000000, 1.000000000000000000, 0.000000000000000000 ) ) ;
#165 = PERSON_AND_ORGANIZATION_ROLE ( 'design_owner' ) ;
#166 = DIRECTION ( 'NONE',  ( 0.000000000000000000, 0.000000000000000000, 1.000000000000000000 ) ) ;
#167 = DATE_AND_TIME ( #42, #137 ) ;
#168 = PERSON_AND_ORGANIZATION_ROLE ( 'creator' ) ;
#169 = APPROVAL_DATE_TIME ( #223, #125 ) ;
#170 = APPROVAL ( #61, 'UNSPECIFIED' ) ;
#171 = SECURITY_CLASSIFICATION ( '', '', #226 ) ;
#172 = FACE_OUTER_BOUND ( 'NONE', #99, .T. ) ;
#173 = EDGE_CURVE ( 'NONE', #196, #196, #52, .T. ) ;
#174 = CARTESIAN_POINT ( 'NONE',  ( 5.586370142149013368E-14, 2.474603641392062316E-32, 16.00000000000000000 ) ) ;
#175 = FACE_OUTER_BOUND ( 'NONE', #159, .T. ) ;
#176 = FACE_OUTER_BOUND ( 'NONE', #10, .T. ) ;
#177 = EDGE_CURVE ( 'NONE', #221, #221, #97, .T. ) ;
#178 = DIRECTION ( 'NONE',  ( -3.491481338843133355E-15, 1.224646799147353207E-16, -1.000000000000000000 ) ) ;
#179 = DIRECTION ( 'NONE',  ( -3.491481338843133355E-15, 1.224646799147353207E-16, -1.000000000000000000 ) ) ;
#180 = CARTESIAN_POINT ( 'NONE',  ( -1.239991119310117278E-30, 4.349303369719384873E-32, -3.551475717527322846E-16 ) ) ;
#181 = PERSON_AND_ORGANIZATION ( #26, #25 ) ;
#182 = AXIS2_PLACEMENT_3D ( 'NONE', #79, #166, #7 ) ;
#183 = ORIENTED_EDGE ( 'NONE', *, *, #81, .F. ) ;
#184 = CALENDAR_DATE ( 2023, 28, 9 ) ;
#185 = CC_DESIGN_SECURITY_CLASSIFICATION ( #171, ( #216 ) ) ;
#186 = CC_DESIGN_PERSON_AND_ORGANIZATION_ASSIGNMENT ( #58, #74, ( #103 ) ) ;
#187 = ORIENTED_EDGE ( 'NONE', *, *, #234, .T. ) ;
#188 = CIRCLE ( 'NONE', #77, 3.300000000000000266 ) ;
#189 = CC_DESIGN_DATE_AND_TIME_ASSIGNMENT ( #149, #227, ( #171 ) ) ;
#190 = PLANE ( 'NONE',  #147 ) ;
#191 = FACE_OUTER_BOUND ( 'NONE', #76, .T. ) ;
#192 = AXIS2_PLACEMENT_3D ( 'NONE', #180, #179, #53 ) ;
#193 = DIRECTION ( 'NONE',  ( -3.491481338843133355E-15, 1.224646799147353207E-16, -1.000000000000000000 ) ) ;
#194 = CC_DESIGN_DATE_AND_TIME_ASSIGNMENT ( #75, #127, ( #103 ) ) ;
#195 = DIRECTION ( 'NONE',  ( 0.000000000000000000, 1.000000000000000000, 0.000000000000000000 ) ) ;
#196 = VERTEX_POINT ( 'NONE', #239 ) ;
#197 = ADVANCED_FACE ( 'NONE', ( #176 ), #162, .F. ) ;
#198 = CLOSED_SHELL ( 'NONE', ( #68, #94, #222, #90 ) ) ;
#199 = LOCAL_TIME ( 15, 33, 12.00000000000000000, #146 ) ;
#200 = DIRECTION ( 'NONE',  ( -3.491481338843133355E-15, 1.224646799147353207E-16, -1.000000000000000000 ) ) ;
#201 = FACE_OUTER_BOUND ( 'NONE', #115, .T. ) ;
#202 = PERSON_AND_ORGANIZATION ( #26, #25 ) ;
#203 = ORIENTED_EDGE ( 'NONE', *, *, #173, .F. ) ;
#204 = CALENDAR_DATE ( 2023, 28, 9 ) ;
#205 = EDGE_LOOP ( 'NONE', ( #50 ) ) ;
#206 = APPLICATION_CONTEXT ( 'configuration controlled 3d designs of mechanical parts and assemblies' ) ;
#207 = MANIFOLD_SOLID_BREP ( 'Corps-Déplacer/Copier1[2]', #198 ) ;
#208 = PERSON_AND_ORGANIZATION ( #26, #25 ) ;
#209 = DIRECTION ( 'NONE',  ( 4.275831445896958607E-31, 1.000000000000000000, 1.224646799147353207E-16 ) ) ;
#210 = DIRECTION ( 'NONE',  ( -3.491481338843133355E-15, 1.224646799147353207E-16, -1.000000000000000000 ) ) ;
#211 = AXIS2_PLACEMENT_3D ( 'NONE', #105, #140, #236 ) ;
#212 = DIRECTION ( 'NONE',  ( -4.275831445896958607E-31, -1.000000000000000000, -1.224646799147353207E-16 ) ) ;
#213 = EDGE_LOOP ( 'NONE', ( #183 ) ) ;
#214 = ADVANCED_FACE ( 'NONE', ( #144, #120 ), #39, .T. ) ;
#215 = FACE_OUTER_BOUND ( 'NONE', #213, .T. ) ;
#216 = PRODUCT_DEFINITION_FORMATION_WITH_SPECIFIED_SOURCE ( 'ANY', '', #66, .NOT_KNOWN. ) ;
#217 = DIRECTION ( 'NONE',  ( -4.275831445896958607E-31, -1.000000000000000000, -1.224646799147353207E-16 ) ) ;
#218 = CARTESIAN_POINT ( 'NONE',  ( 5.586370142149013368E-14, 3.299999999999998046, 16.00000000000000000 ) ) ;
#219 = DIRECTION ( 'NONE',  ( 4.275831445896958607E-31, 1.000000000000000000, 1.224646799147353207E-16 ) ) ;
#220 = CC_DESIGN_APPROVAL ( #44, ( #216 ) ) ;
#221 = VERTEX_POINT ( 'NONE', #72 ) ;
#222 = ADVANCED_FACE ( 'NONE', ( #102 ), #122, .T. ) ;
#223 = DATE_AND_TIME ( #204, #118 ) ;
#224 = CIRCLE ( 'NONE', #32, 2.999999999999990230 ) ;
#225 = ORIENTED_EDGE ( 'NONE', *, *, #153, .F. ) ;
#226 = SECURITY_CLASSIFICATION_LEVEL ( 'unclassified' ) ;
#227 = DATE_TIME_ROLE ( 'classification_date' ) ;
#228 = APPLICATION_PROTOCOL_DEFINITION ( 'international standard', 'config_control_design', 1994, #112 ) ;
#229 = APPROVAL_PERSON_ORGANIZATION ( #243, #125, #131 ) ;
#230 = EDGE_LOOP ( 'NONE', ( #98 ) ) ;
#231 = CARTESIAN_POINT ( 'NONE',  ( 5.586370142149013368E-14, -1.959434878635765131E-15, 16.00000000000000000 ) ) ;
#232 = CONICAL_SURFACE ( 'NONE', #211, 2.400000000000003464, 0.7853981633974335130 ) ;
#233 = DIRECTION ( 'NONE',  ( 4.085305942639591708E-31, 1.000000000000000000, 1.149911395060383633E-16 ) ) ;
#234 = EDGE_CURVE ( 'NONE', #161, #161, #158, .T. ) ;
#235 = DIRECTION ( 'NONE',  ( -3.491481338843133355E-15, 1.224646799147353207E-16, -1.000000000000000000 ) ) ;
#236 = DIRECTION ( 'NONE',  ( 0.000000000000000000, 1.000000000000000000, 0.000000000000000000 ) ) ;
#237 = CC_DESIGN_PERSON_AND_ORGANIZATION_ASSIGNMENT ( #181, #165, ( #66 ) ) ;
#238 = VERTEX_POINT ( 'NONE', #13 ) ;
#239 = CARTESIAN_POINT ( 'NONE',  ( 3.505447264198505131E-13, 2.999999999999990674, 100.3999999999999915 ) ) ;
#240 = CARTESIAN_POINT ( 'NONE',  ( 5.586370142149013368E-14, -1.959434878635765131E-15, 16.00000000000000000 ) ) ;
#241 = CLOSED_SHELL ( 'NONE', ( #197, #214, #41, #129, #116 ) ) ;
#242 = CC_DESIGN_PERSON_AND_ORGANIZATION_ASSIGNMENT ( #111, #40, ( #171 ) ) ;
#243 = PERSON_AND_ORGANIZATION ( #26, #25 ) ;
ENDSEC;
END-ISO-10303-21;
