ISO-10303-21;
HEADER;
FILE_DESCRIPTION (( 'STEP AP203' ),
    '1' );
FILE_NAME ('342084.step',
    '2023-09-28T13:33:12',
    ( '' ),
    ( '' ),
    'SwSTEP 2.0',
    'SolidWorks 2022',
    '' );
FILE_SCHEMA (( 'CONFIG_CONTROL_DESIGN' ));
ENDSEC;

DATA;
#1 = FACE_OUTER_BOUND ( 'NONE', #85, .T. ) ;
#2 = PERSON ( 'UNSPECIFIED', 'UNSPECIFIED', 'UNSPECIFIED', ('UNSPECIFIED'), ('UNSPECIFIED'), ('UNSPECIFIED') ) ;
#3 = APPROVAL_PERSON_ORGANIZATION ( #114, #90, #79 ) ;
#4 = APPROVAL_PERSON_ORGANIZATION ( #95, #220, #111 ) ;
#5 = ORIENTED_EDGE ( 'NONE', *, *, #55, .T. ) ;
#6 = ADVANCED_FACE ( 'NONE', ( #209, #224 ), #228, .T. ) ;
#7 = PLANE ( 'NONE',  #239 ) ;
#8 = CARTESIAN_POINT ( 'NONE',  ( 3.526396152231565067E-13, -1.236893267138826732E-14, 101.0000000000000000 ) ) ;
#9 = MANIFOLD_SOLID_BREP ( 'Corps-Déplacer/Copier1[2]', #25 ) ;
#10 = CIRCLE ( 'NONE', #222, 3.000000000000002665 ) ;
#11 = DIRECTION ( 'NONE',  ( -4.275831445896958607E-31, -1.000000000000000000, -1.224646799147353207E-16 ) ) ;
#12 = CARTESIAN_POINT ( 'NONE',  ( 3.526396152231565067E-13, 1.799711739194212982E-32, 101.0000000000000000 ) ) ;
#13 = VERTEX_POINT ( 'NONE', #50 ) ;
#14 = MANIFOLD_SOLID_BREP ( 'Corps-Déplacer/Copier1[1]', #127 ) ;
#15 =( NAMED_UNIT ( * ) PLANE_ANGLE_UNIT ( ) SI_UNIT ( $, .RADIAN. ) );
#16 = EDGE_LOOP ( 'NONE', ( #84 ) ) ;
#17 = APPROVAL_ROLE ( '' ) ;
#18 = EDGE_CURVE ( 'NONE', #216, #216, #98, .T. ) ;
#19 = COORDINATED_UNIVERSAL_TIME_OFFSET ( 1, 0, .AHEAD. ) ;
#20 = APPLICATION_PROTOCOL_DEFINITION ( 'international standard', 'config_control_design', 1994, #66 ) ;
#21 = AXIS2_PLACEMENT_3D ( 'NONE', #61, #172, #135 ) ;
#22 = ORIENTED_EDGE ( 'NONE', *, *, #155, .T. ) ;
#23 = DIRECTION ( 'NONE',  ( -3.491481338843133355E-15, 1.224646799147353207E-16, -1.000000000000000000 ) ) ;
#24 = CC_DESIGN_PERSON_AND_ORGANIZATION_ASSIGNMENT ( #189, #76, ( #177 ) ) ;
#25 = CLOSED_SHELL ( 'NONE', ( #151, #180, #105, #235 ) ) ;
#26 = AXIS2_PLACEMENT_3D ( 'NONE', #158, #122, #226 ) ;
#27 = CARTESIAN_POINT ( 'NONE',  ( 1.396592535537251962E-15, -4.898587196589407529E-17, 0.3999999999999995781 ) ) ;
#28 = DIRECTION ( 'NONE',  ( -3.491481338843133355E-15, 1.224646799147353207E-16, -1.000000000000000000 ) ) ;
#29 = ORIENTED_EDGE ( 'NONE', *, *, #202, .F. ) ;
#30 = DIRECTION ( 'NONE',  ( 1.000000000000000000, 0.000000000000000000, 0.000000000000000000 ) ) ;
#31 = CARTESIAN_POINT ( 'NONE',  ( 5.586370142149013368E-14, 3.259999999999998010, 16.00000000000000000 ) ) ;
#32 = VERTEX_POINT ( 'NONE', #175 ) ;
#33 = AXIS2_PLACEMENT_3D ( 'NONE', #145, #68, #11 ) ;
#34 = DIRECTION ( 'NONE',  ( 4.275831445896958607E-31, 1.000000000000000000, 1.224646799147353207E-16 ) ) ;
#35 = PERSON_AND_ORGANIZATION_ROLE ( 'creator' ) ;
#36 = EDGE_CURVE ( 'NONE', #236, #236, #115, .T. ) ;
#37 = APPROVAL_DATE_TIME ( #165, #90 ) ;
#38 = LOCAL_TIME ( 15, 33, 12.00000000000000000, #77 ) ;
#39 = SHAPE_DEFINITION_REPRESENTATION ( #219, #240 ) ;
#40 = AXIS2_PLACEMENT_3D ( 'NONE', #27, #28, #229 ) ;
#41 = CARTESIAN_POINT ( 'NONE',  ( -6.114438967632647532E-31, 2.144656489206455339E-32, -1.751244922780714167E-16 ) ) ;
#42 = DIRECTION ( 'NONE',  ( 4.275831445896958607E-31, 1.000000000000000000, 1.224646799147353207E-16 ) ) ;
#43 = EDGE_LOOP ( 'NONE', ( #225 ) ) ;
#44 = ORIENTED_EDGE ( 'NONE', *, *, #47, .F. ) ;
#45 = DIRECTION ( 'NONE',  ( 3.491481338843133355E-15, -1.224646799147353207E-16, 1.000000000000000000 ) ) ;
#46 = FACE_OUTER_BOUND ( 'NONE', #43, .T. ) ;
#47 = EDGE_CURVE ( 'NONE', #198, #198, #107, .T. ) ;
#48 = DIRECTION ( 'NONE',  ( 0.000000000000000000, 1.000000000000000000, 0.000000000000000000 ) ) ;
#49 = CARTESIAN_POINT ( 'NONE',  ( 0.000000000000000000, 2.859999999999998543, 0.000000000000000000 ) ) ;
#50 = CARTESIAN_POINT ( 'NONE',  ( 5.586370142149013368E-14, 3.259999999999998010, 16.00000000000000000 ) ) ;
#51 = AXIS2_PLACEMENT_3D ( 'NONE', #12, #200, #34 ) ;
#52 = COORDINATED_UNIVERSAL_TIME_OFFSET ( 1, 0, .AHEAD. ) ;
#53 = PERSON_AND_ORGANIZATION_ROLE ( 'classification_officer' ) ;
#54 = CC_DESIGN_SECURITY_CLASSIFICATION ( #171, ( #233 ) ) ;
#55 = EDGE_CURVE ( 'NONE', #217, #217, #205, .T. ) ;
#56 = APPROVAL_STATUS ( 'not_yet_approved' ) ;
#57 = EDGE_LOOP ( 'NONE', ( #94 ) ) ;
#58 = ORIENTED_EDGE ( 'NONE', *, *, #36, .T. ) ;
#59 = CIRCLE ( 'NONE', #168, 3.260000000000000231 ) ;
#60 = CC_DESIGN_APPROVAL ( #220, ( #171 ) ) ;
#61 = CARTESIAN_POINT ( 'NONE',  ( 5.586370142149013368E-14, -1.959434878635765131E-15, 16.00000000000000000 ) ) ;
#62 = ORIENTED_EDGE ( 'NONE', *, *, #18, .T. ) ;
#63 = EDGE_LOOP ( 'NONE', ( #212 ) ) ;
#64 =( GEOMETRIC_REPRESENTATION_CONTEXT ( 3 ) GLOBAL_UNCERTAINTY_ASSIGNED_CONTEXT ( ( #136 ) ) GLOBAL_UNIT_ASSIGNED_CONTEXT ( ( #184, #15, #231 ) ) REPRESENTATION_CONTEXT ( 'NONE', 'WORKASPACE' ) );
#65 = DIRECTION ( 'NONE',  ( 0.000000000000000000, 1.000000000000000000, 0.000000000000000000 ) ) ;
#66 = APPLICATION_CONTEXT ( 'configuration controlled 3d designs of mechanical parts and assemblies' ) ;
#67 = CYLINDRICAL_SURFACE ( 'NONE', #120, 3.259999999999999787 ) ;
#68 = DIRECTION ( 'NONE',  ( 3.491481338843133355E-15, -1.224646799147353207E-16, 1.000000000000000000 ) ) ;
#69 = ADVANCED_FACE ( 'NONE', ( #173, #213 ), #182, .T. ) ;
#70 = AXIS2_PLACEMENT_3D ( 'NONE', #195, #133, #194 ) ;
#71 = CARTESIAN_POINT ( 'NONE',  ( 0.000000000000000000, 0.000000000000000000, 0.000000000000000000 ) ) ;
#72 = CARTESIAN_POINT ( 'NONE',  ( 5.586370142149013368E-14, 2.444608445738824671E-32, 16.00000000000000000 ) ) ;
#73 = DIRECTION ( 'NONE',  ( -4.275831445896958607E-31, -1.000000000000000000, -1.224646799147353207E-16 ) ) ;
#74 = APPROVAL_STATUS ( 'not_yet_approved' ) ;
#75 = ADVANCED_FACE ( 'NONE', ( #101 ), #81, .F. ) ;
#76 = PERSON_AND_ORGANIZATION_ROLE ( 'design_owner' ) ;
#77 = COORDINATED_UNIVERSAL_TIME_OFFSET ( 1, 0, .AHEAD. ) ;
#78 = APPROVAL_DATE_TIME ( #149, #207 ) ;
#79 = APPROVAL_ROLE ( '' ) ;
#80 = ORIENTED_EDGE ( 'NONE', *, *, #18, .F. ) ;
#81 = PLANE ( 'NONE',  #159 ) ;
#82 = LOCAL_TIME ( 15, 33, 12.00000000000000000, #97 ) ;
#83 = CC_DESIGN_APPROVAL ( #207, ( #233 ) ) ;
#84 = ORIENTED_EDGE ( 'NONE', *, *, #155, .F. ) ;
#85 = EDGE_LOOP ( 'NONE', ( #22 ) ) ;
#86 = PRODUCT_RELATED_PRODUCT_CATEGORY ( 'detail', '', ( #177 ) ) ;
#87 = DIRECTION ( 'NONE',  ( -3.491481338843133355E-15, 1.224646799147353207E-16, -1.000000000000000000 ) ) ;
#88 = DIRECTION ( 'NONE',  ( -3.491481338843133355E-15, 1.224646799147353207E-16, -1.000000000000000000 ) ) ;
#89 = FACE_OUTER_BOUND ( 'NONE', #100, .T. ) ;
#90 = APPROVAL ( #162, 'UNSPECIFIED' ) ;
#91 = CARTESIAN_POINT ( 'NONE',  ( 3.505447264198505131E-13, -1.229545386343942402E-14, 100.3999999999999915 ) ) ;
#92 = CC_DESIGN_PERSON_AND_ORGANIZATION_ASSIGNMENT ( #188, #110, ( #233 ) ) ;
#93 = AXIS2_PLACEMENT_3D ( 'NONE', #197, #106, #30 ) ;
#94 = ORIENTED_EDGE ( 'NONE', *, *, #36, .F. ) ;
#95 = PERSON_AND_ORGANIZATION ( #2, #153 ) ;
#96 = DATE_AND_TIME ( #185, #183 ) ;
#97 = COORDINATED_UNIVERSAL_TIME_OFFSET ( 1, 0, .AHEAD. ) ;
#98 = CIRCLE ( 'NONE', #26, 2.999999999999990230 ) ;
#99 = DIRECTION ( 'NONE',  ( -3.491481338843133355E-15, 1.224646799147353207E-16, -1.000000000000000000 ) ) ;
#100 = EDGE_LOOP ( 'NONE', ( #5 ) ) ;
#101 = FACE_OUTER_BOUND ( 'NONE', #211, .T. ) ;
#102 = EDGE_LOOP ( 'NONE', ( #29 ) ) ;
#103 = FACE_OUTER_BOUND ( 'NONE', #134, .T. ) ;
#104 = APPLICATION_PROTOCOL_DEFINITION ( 'international standard', 'config_control_design', 1994, #242 ) ;
#105 = ADVANCED_FACE ( 'NONE', ( #210 ), #7, .T. ) ;
#106 = DIRECTION ( 'NONE',  ( 0.000000000000000000, 0.000000000000000000, 1.000000000000000000 ) ) ;
#107 = CIRCLE ( 'NONE', #70, 2.859999999999998543 ) ;
#108 = DIRECTION ( 'NONE',  ( 4.275831445896958607E-31, 1.000000000000000000, 1.224646799147353207E-16 ) ) ;
#109 = CC_DESIGN_PERSON_AND_ORGANIZATION_ASSIGNMENT ( #148, #35, ( #233 ) ) ;
#110 = PERSON_AND_ORGANIZATION_ROLE ( 'design_supplier' ) ;
#111 = APPROVAL_ROLE ( '' ) ;
#112 = CC_DESIGN_APPROVAL ( #90, ( #116 ) ) ;
#113 = DATE_AND_TIME ( #237, #38 ) ;
#114 = PERSON_AND_ORGANIZATION ( #2, #153 ) ;
#115 = CIRCLE ( 'NONE', #21, 3.260000000000000231 ) ;
#116 = PRODUCT_DEFINITION ( 'UNKNOWN', '', #233, #192 ) ;
#117 = CARTESIAN_POINT ( 'NONE',  ( 5.586370142149013368E-14, -1.959434878635765131E-15, 16.00000000000000000 ) ) ;
#118 = CYLINDRICAL_SURFACE ( 'NONE', #138, 2.999999999999996447 ) ;
#119 = CARTESIAN_POINT ( 'NONE',  ( 5.586370142149013368E-14, -1.959434878635765131E-15, 16.00000000000000000 ) ) ;
#120 = AXIS2_PLACEMENT_3D ( 'NONE', #71, #178, #141 ) ;
#121 = LOCAL_TIME ( 15, 33, 12.00000000000000000, #241 ) ;
#122 = DIRECTION ( 'NONE',  ( -3.491481338843133355E-15, 1.224646799147353207E-16, -1.000000000000000000 ) ) ;
#123 = DIRECTION ( 'NONE',  ( -4.275831445896958607E-31, -1.000000000000000000, -1.224646799147353207E-16 ) ) ;
#124 = AXIS2_PLACEMENT_3D ( 'NONE', #8, #87, #65 ) ;
#125 = EDGE_CURVE ( 'NONE', #13, #13, #59, .T. ) ;
#126 = FACE_BOUND ( 'NONE', #186, .T. ) ;
#127 = CLOSED_SHELL ( 'NONE', ( #75, #6, #144, #69, #174 ) ) ;
#128 = DATE_TIME_ROLE ( 'classification_date' ) ;
#129 = APPROVAL_PERSON_ORGANIZATION ( #187, #207, #17 ) ;
#130 = CALENDAR_DATE ( 2023, 28, 9 ) ;
#131 = CC_DESIGN_DATE_AND_TIME_ASSIGNMENT ( #113, #223, ( #116 ) ) ;
#132 = CONICAL_SURFACE ( 'NONE', #33, 2.859999999999998543, 0.7853981633974502774 ) ;
#133 = DIRECTION ( 'NONE',  ( -3.491481338843133355E-15, 1.224646799147353207E-16, -1.000000000000000000 ) ) ;
#134 = EDGE_LOOP ( 'NONE', ( #170 ) ) ;
#135 = DIRECTION ( 'NONE',  ( 0.000000000000000000, 1.000000000000000000, 0.000000000000000000 ) ) ;
#136 = UNCERTAINTY_MEASURE_WITH_UNIT (LENGTH_MEASURE( 1.000000000000000082E-05 ), #184, 'distance_accuracy_value', 'NONE');
#137 = EDGE_LOOP ( 'NONE', ( #156 ) ) ;
#138 = AXIS2_PLACEMENT_3D ( 'NONE', #193, #23, #108 ) ;
#139 = CARTESIAN_POINT ( 'NONE',  ( 5.586370142149013368E-14, 2.444608445738824671E-32, 16.00000000000000000 ) ) ;
#140 = PLANE ( 'NONE',  #190 ) ;
#141 = DIRECTION ( 'NONE',  ( 4.275831445896958607E-31, 1.000000000000000000, 1.224646799147353207E-16 ) ) ;
#142 = AXIS2_PLACEMENT_3D ( 'NONE', #161, #181, #48 ) ;
#143 = FACE_OUTER_BOUND ( 'NONE', #137, .T. ) ;
#144 = ADVANCED_FACE ( 'NONE', ( #191, #1 ), #118, .T. ) ;
#145 = CARTESIAN_POINT ( 'NONE',  ( -1.222887793526529506E-30, 4.289312978412910678E-32, -3.502489845561428333E-16 ) ) ;
#146 = DIRECTION ( 'NONE',  ( 3.491481338843133355E-15, -1.224646799147353207E-16, 1.000000000000000000 ) ) ;
#147 = LOCAL_TIME ( 15, 33, 12.00000000000000000, #52 ) ;
#148 = PERSON_AND_ORGANIZATION ( #2, #153 ) ;
#149 = DATE_AND_TIME ( #208, #147 ) ;
#150 = PERSON_AND_ORGANIZATION ( #2, #153 ) ;
#151 = ADVANCED_FACE ( 'NONE', ( #143, #103 ), #67, .T. ) ;
#152 = EDGE_LOOP ( 'NONE', ( #62 ) ) ;
#153 = ORGANIZATION ( 'UNSPECIFIED', 'UNSPECIFIED', '' ) ;
#154 = EDGE_LOOP ( 'NONE', ( #157 ) ) ;
#155 = EDGE_CURVE ( 'NONE', #179, #179, #10, .T. ) ;
#156 = ORIENTED_EDGE ( 'NONE', *, *, #125, .T. ) ;
#157 = ORIENTED_EDGE ( 'NONE', *, *, #47, .T. ) ;
#158 = CARTESIAN_POINT ( 'NONE',  ( 5.743603142035447380E-14, -2.014584791049462304E-15, 16.45033320996792625 ) ) ;
#159 = AXIS2_PLACEMENT_3D ( 'NONE', #139, #45, #123 ) ;
#160 = CC_DESIGN_DATE_AND_TIME_ASSIGNMENT ( #96, #128, ( #171 ) ) ;
#161 = CARTESIAN_POINT ( 'NONE',  ( 3.526396152231565067E-13, -1.236893267138826732E-14, 101.0000000000000000 ) ) ;
#162 = APPROVAL_STATUS ( 'not_yet_approved' ) ;
#163 = CC_DESIGN_PERSON_AND_ORGANIZATION_ASSIGNMENT ( #221, #53, ( #171 ) ) ;
#164 = EDGE_LOOP ( 'NONE', ( #80 ) ) ;
#165 = DATE_AND_TIME ( #204, #82 ) ;
#166 = CC_DESIGN_PERSON_AND_ORGANIZATION_ASSIGNMENT ( #150, #203, ( #116 ) ) ;
#167 = SECURITY_CLASSIFICATION_LEVEL ( 'unclassified' ) ;
#168 = AXIS2_PLACEMENT_3D ( 'NONE', #117, #99, #243 ) ;
#169 = DIRECTION ( 'NONE',  ( -3.491481338843133355E-15, 1.224646799147353207E-16, -1.000000000000000000 ) ) ;
#170 = ORIENTED_EDGE ( 'NONE', *, *, #55, .F. ) ;
#171 = SECURITY_CLASSIFICATION ( '', '', #167 ) ;
#172 = DIRECTION ( 'NONE',  ( -3.491481338843133355E-15, 1.224646799147353207E-16, -1.000000000000000000 ) ) ;
#173 = FACE_OUTER_BOUND ( 'NONE', #16, .T. ) ;
#174 = ADVANCED_FACE ( 'NONE', ( #215 ), #214, .F. ) ;
#175 = CARTESIAN_POINT ( 'NONE',  ( 3.526396152231565067E-13, 2.399999999999990585, 101.0000000000000000 ) ) ;
#176 = CIRCLE ( 'NONE', #142, 2.400000000000003464 ) ;
#177 = PRODUCT ( '342084', '342084', '', ( #201 ) ) ;
#178 = DIRECTION ( 'NONE',  ( -3.491481338843133355E-15, 1.224646799147353207E-16, -1.000000000000000000 ) ) ;
#179 = VERTEX_POINT ( 'NONE', #230 ) ;
#180 = ADVANCED_FACE ( 'NONE', ( #46 ), #140, .T. ) ;
#181 = DIRECTION ( 'NONE',  ( -3.491481338843133355E-15, 1.224646799147353207E-16, -1.000000000000000000 ) ) ;
#182 = CONICAL_SURFACE ( 'NONE', #124, 2.400000000000003464, 0.7853981633974335130 ) ;
#183 = LOCAL_TIME ( 15, 33, 12.00000000000000000, #19 ) ;
#184 =( LENGTH_UNIT ( ) NAMED_UNIT ( * ) SI_UNIT ( .MILLI., .METRE. ) );
#185 = CALENDAR_DATE ( 2023, 28, 9 ) ;
#186 = EDGE_LOOP ( 'NONE', ( #44 ) ) ;
#187 = PERSON_AND_ORGANIZATION ( #2, #153 ) ;
#188 = PERSON_AND_ORGANIZATION ( #2, #153 ) ;
#189 = PERSON_AND_ORGANIZATION ( #2, #153 ) ;
#190 = AXIS2_PLACEMENT_3D ( 'NONE', #72, #146, #73 ) ;
#191 = FACE_OUTER_BOUND ( 'NONE', #164, .T. ) ;
#192 = DESIGN_CONTEXT ( 'detailed design', #66, 'design' ) ;
#193 = CARTESIAN_POINT ( 'NONE',  ( 0.000000000000000000, 0.000000000000000000, 0.000000000000000000 ) ) ;
#194 = DIRECTION ( 'NONE',  ( 4.275831445896958607E-31, 1.000000000000000000, 1.224646799147353207E-16 ) ) ;
#195 = CARTESIAN_POINT ( 'NONE',  ( -1.222887793526529506E-30, 4.289312978412910678E-32, -3.502489845561428333E-16 ) ) ;
#196 = DIRECTION ( 'NONE',  ( -3.491481338843133355E-15, 1.224646799147353207E-16, -1.000000000000000000 ) ) ;
#197 = CARTESIAN_POINT ( 'NONE',  ( 0.000000000000000000, 0.000000000000000000, 0.000000000000000000 ) ) ;
#198 = VERTEX_POINT ( 'NONE', #49 ) ;
#199 = CARTESIAN_POINT ( 'NONE',  ( 1.396592535537253342E-15, 3.259999999999999787, 0.3999999999999999667 ) ) ;
#200 = DIRECTION ( 'NONE',  ( -3.491481338843133355E-15, 1.224646799147353207E-16, -1.000000000000000000 ) ) ;
#201 = MECHANICAL_CONTEXT ( 'NONE', #242, 'mechanical' ) ;
#202 = EDGE_CURVE ( 'NONE', #32, #32, #176, .T. ) ;
#203 = PERSON_AND_ORGANIZATION_ROLE ( 'creator' ) ;
#204 = CALENDAR_DATE ( 2023, 28, 9 ) ;
#205 = CIRCLE ( 'NONE', #40, 3.259999999999999787 ) ;
#206 = APPROVAL_DATE_TIME ( #238, #220 ) ;
#207 = APPROVAL ( #56, 'UNSPECIFIED' ) ;
#208 = CALENDAR_DATE ( 2023, 28, 9 ) ;
#209 = FACE_BOUND ( 'NONE', #152, .T. ) ;
#210 = FACE_OUTER_BOUND ( 'NONE', #154, .T. ) ;
#211 = EDGE_LOOP ( 'NONE', ( #58 ) ) ;
#212 = ORIENTED_EDGE ( 'NONE', *, *, #202, .T. ) ;
#213 = FACE_BOUND ( 'NONE', #63, .T. ) ;
#214 = PLANE ( 'NONE',  #51 ) ;
#215 = FACE_OUTER_BOUND ( 'NONE', #102, .T. ) ;
#216 = VERTEX_POINT ( 'NONE', #234 ) ;
#217 = VERTEX_POINT ( 'NONE', #199 ) ;
#218 = AXIS2_PLACEMENT_3D ( 'NONE', #119, #169, #227 ) ;
#219 = PRODUCT_DEFINITION_SHAPE ( 'NONE', 'NONE',  #116 ) ;
#220 = APPROVAL ( #74, 'UNSPECIFIED' ) ;
#221 = PERSON_AND_ORGANIZATION ( #2, #153 ) ;
#222 = AXIS2_PLACEMENT_3D ( 'NONE', #91, #88, #232 ) ;
#223 = DATE_TIME_ROLE ( 'creation_date' ) ;
#224 = FACE_OUTER_BOUND ( 'NONE', #57, .T. ) ;
#225 = ORIENTED_EDGE ( 'NONE', *, *, #125, .F. ) ;
#226 = DIRECTION ( 'NONE',  ( 0.000000000000000000, 1.000000000000000000, 0.000000000000000000 ) ) ;
#227 = DIRECTION ( 'NONE',  ( 0.000000000000000000, 1.000000000000000000, 0.000000000000000000 ) ) ;
#228 = CONICAL_SURFACE ( 'NONE', #218, 3.260000000000000231, 0.5235987755982990377 ) ;
#229 = DIRECTION ( 'NONE',  ( 4.135432395923513175E-31, 1.000000000000000000, 1.164020737331063214E-16 ) ) ;
#230 = CARTESIAN_POINT ( 'NONE',  ( 3.505447264198505131E-13, 2.999999999999990674, 100.3999999999999915 ) ) ;
#231 =( NAMED_UNIT ( * ) SI_UNIT ( $, .STERADIAN. ) SOLID_ANGLE_UNIT ( ) );
#232 = DIRECTION ( 'NONE',  ( 0.000000000000000000, 1.000000000000000000, 0.000000000000000000 ) ) ;
#233 = PRODUCT_DEFINITION_FORMATION_WITH_SPECIFIED_SOURCE ( 'ANY', '', #177, .NOT_KNOWN. ) ;
#234 = CARTESIAN_POINT ( 'NONE',  ( 5.743603142035447380E-14, 2.999999999999988010, 16.45033320996792625 ) ) ;
#235 = ADVANCED_FACE ( 'NONE', ( #89, #126 ), #132, .T. ) ;
#236 = VERTEX_POINT ( 'NONE', #31 ) ;
#237 = CALENDAR_DATE ( 2023, 28, 9 ) ;
#238 = DATE_AND_TIME ( #130, #121 ) ;
#239 = AXIS2_PLACEMENT_3D ( 'NONE', #41, #196, #42 ) ;
#240 = ADVANCED_BREP_SHAPE_REPRESENTATION ( '342084', ( #14, #9, #93 ), #64 ) ;
#241 = COORDINATED_UNIVERSAL_TIME_OFFSET ( 1, 0, .AHEAD. ) ;
#242 = APPLICATION_CONTEXT ( 'configuration controlled 3d designs of mechanical parts and assemblies' ) ;
#243 = DIRECTION ( 'NONE',  ( 0.000000000000000000, 1.000000000000000000, 0.000000000000000000 ) ) ;
ENDSEC;
END-ISO-10303-21;
