ISO-10303-21;
HEADER;
FILE_DESCRIPTION (( 'STEP AP203' ),
    '1' );
FILE_NAME ('342083.step',
    '2023-09-28T13:33:11',
    ( '' ),
    ( '' ),
    'SwSTEP 2.0',
    'SolidWorks 2022',
    '' );
FILE_SCHEMA (( 'CONFIG_CONTROL_DESIGN' ));
ENDSEC;

DATA;
#1 = DIRECTION ( 'NONE',  ( -3.491481338843133355E-15, 1.224646799147353207E-16, -1.000000000000000000 ) ) ;
#2 = DATE_AND_TIME ( #78, #8 ) ;
#3 = AXIS2_PLACEMENT_3D ( 'NONE', #53, #110, #87 ) ;
#4 = COORDINATED_UNIVERSAL_TIME_OFFSET ( 1, 0, .AHEAD. ) ;
#5 = EDGE_LOOP ( 'NONE', ( #185 ) ) ;
#6 = ADVANCED_FACE ( 'NONE', ( #24, #232 ), #221, .T. ) ;
#7 = VERTEX_POINT ( 'NONE', #79 ) ;
#8 = LOCAL_TIME ( 15, 33, 11.00000000000000000, #179 ) ;
#9 = FACE_OUTER_BOUND ( 'NONE', #223, .T. ) ;
#10 = AXIS2_PLACEMENT_3D ( 'NONE', #65, #137, #82 ) ;
#11 = DIRECTION ( 'NONE',  ( -3.491481338843133355E-15, 1.224646799147353207E-16, -1.000000000000000000 ) ) ;
#12 = COORDINATED_UNIVERSAL_TIME_OFFSET ( 1, 0, .AHEAD. ) ;
#13 = EDGE_CURVE ( 'NONE', #20, #20, #235, .T. ) ;
#14 = APPROVAL_ROLE ( '' ) ;
#15 = AXIS2_PLACEMENT_3D ( 'NONE', #220, #59, #228 ) ;
#16 = APPROVAL_PERSON_ORGANIZATION ( #52, #174, #89 ) ;
#17 = CALENDAR_DATE ( 2023, 28, 9 ) ;
#18 = FACE_OUTER_BOUND ( 'NONE', #208, .T. ) ;
#19 = PERSON_AND_ORGANIZATION_ROLE ( 'design_supplier' ) ;
#20 = VERTEX_POINT ( 'NONE', #51 ) ;
#21 = ADVANCED_FACE ( 'NONE', ( #9 ), #160, .T. ) ;
#22 = VERTEX_POINT ( 'NONE', #94 ) ;
#23 = EDGE_LOOP ( 'NONE', ( #196 ) ) ;
#24 = FACE_OUTER_BOUND ( 'NONE', #168, .T. ) ;
#25 =( NAMED_UNIT ( * ) SI_UNIT ( $, .STERADIAN. ) SOLID_ANGLE_UNIT ( ) );
#26 = CC_DESIGN_APPROVAL ( #97, ( #100 ) ) ;
#27 = FACE_OUTER_BOUND ( 'NONE', #171, .T. ) ;
#28 = LOCAL_TIME ( 15, 33, 11.00000000000000000, #12 ) ;
#29 = DIRECTION ( 'NONE',  ( 4.275831445896958607E-31, 1.000000000000000000, 1.224646799147353207E-16 ) ) ;
#30 = CALENDAR_DATE ( 2023, 28, 9 ) ;
#31 = CC_DESIGN_SECURITY_CLASSIFICATION ( #142, ( #100 ) ) ;
#32 = DIRECTION ( 'NONE',  ( -3.491481338843133355E-15, 1.224646799147353207E-16, -1.000000000000000000 ) ) ;
#33 = DATE_TIME_ROLE ( 'creation_date' ) ;
#34 = PERSON_AND_ORGANIZATION_ROLE ( 'creator' ) ;
#35 = VERTEX_POINT ( 'NONE', #184 ) ;
#36 = CC_DESIGN_PERSON_AND_ORGANIZATION_ASSIGNMENT ( #166, #177, ( #142 ) ) ;
#37 = DESIGN_CONTEXT ( 'detailed design', #85, 'design' ) ;
#38 = CC_DESIGN_APPROVAL ( #174, ( #142 ) ) ;
#39 = CARTESIAN_POINT ( 'NONE',  ( 3.526396152231565067E-13, -1.236893267138826732E-14, 101.0000000000000000 ) ) ;
#40 = ORIENTED_EDGE ( 'NONE', *, *, #125, .F. ) ;
#41 = DIRECTION ( 'NONE',  ( 4.275831445896958607E-31, 1.000000000000000000, 1.224646799147353454E-16 ) ) ;
#42 = DIRECTION ( 'NONE',  ( 3.491481338843133355E-15, -1.224646799147353207E-16, 1.000000000000000000 ) ) ;
#43 = AXIS2_PLACEMENT_3D ( 'NONE', #128, #169, #167 ) ;
#44 = APPROVAL_PERSON_ORGANIZATION ( #199, #192, #14 ) ;
#45 = DIRECTION ( 'NONE',  ( 4.275831445896958607E-31, 1.000000000000000000, 1.224646799147353207E-16 ) ) ;
#46 = DIRECTION ( 'NONE',  ( -4.275831445896958607E-31, -1.000000000000000000, -1.224646799147353207E-16 ) ) ;
#47 = PRODUCT ( '342083', '342083', '', ( #122 ) ) ;
#48 = ADVANCED_FACE ( 'NONE', ( #158, #140 ), #80, .T. ) ;
#49 = CC_DESIGN_PERSON_AND_ORGANIZATION_ASSIGNMENT ( #75, #127, ( #100 ) ) ;
#50 = APPROVAL_DATE_TIME ( #218, #174 ) ;
#51 = CARTESIAN_POINT ( 'NONE',  ( 1.710569414459005214E-46, 2.854999999999998650, 0.000000000000000000 ) ) ;
#52 = PERSON_AND_ORGANIZATION ( #129, #139 ) ;
#53 = CARTESIAN_POINT ( 'NONE',  ( 1.396592535537250384E-15, -4.898587196589401982E-17, 0.3999999999999991340 ) ) ;
#54 =( GEOMETRIC_REPRESENTATION_CONTEXT ( 3 ) GLOBAL_UNCERTAINTY_ASSIGNED_CONTEXT ( ( #242 ) ) GLOBAL_UNIT_ASSIGNED_CONTEXT ( ( #215, #115, #25 ) ) REPRESENTATION_CONTEXT ( 'NONE', 'WORKASPACE' ) );
#55 = ADVANCED_FACE ( 'NONE', ( #27, #98 ), #231, .T. ) ;
#56 = DIRECTION ( 'NONE',  ( -3.491481338843133355E-15, 1.224646799147353207E-16, -1.000000000000000000 ) ) ;
#57 = DIRECTION ( 'NONE',  ( 0.000000000000000000, 1.000000000000000000, 0.000000000000000000 ) ) ;
#58 = CC_DESIGN_PERSON_AND_ORGANIZATION_ASSIGNMENT ( #124, #126, ( #47 ) ) ;
#59 = DIRECTION ( 'NONE',  ( 3.491481338843133355E-15, -1.224646799147353207E-16, 1.000000000000000000 ) ) ;
#60 = ORIENTED_EDGE ( 'NONE', *, *, #200, .F. ) ;
#61 = CLOSED_SHELL ( 'NONE', ( #236, #48, #55, #6, #83 ) ) ;
#62 = LOCAL_TIME ( 15, 33, 11.00000000000000000, #148 ) ;
#63 = CARTESIAN_POINT ( 'NONE',  ( 5.586370142149013368E-14, 2.440859046282170547E-32, 16.00000000000000000 ) ) ;
#64 = PLANE ( 'NONE',  #210 ) ;
#65 = CARTESIAN_POINT ( 'NONE',  ( 3.526396152231565067E-13, -1.236893267138826732E-14, 101.0000000000000000 ) ) ;
#66 = CIRCLE ( 'NONE', #156, 2.400000000000003464 ) ;
#67 = CC_DESIGN_PERSON_AND_ORGANIZATION_ASSIGNMENT ( #201, #19, ( #100 ) ) ;
#68 = ORIENTED_EDGE ( 'NONE', *, *, #200, .T. ) ;
#69 = PERSON_AND_ORGANIZATION ( #129, #139 ) ;
#70 = AXIS2_PLACEMENT_3D ( 'NONE', #172, #214, #45 ) ;
#71 = DATE_TIME_ROLE ( 'classification_date' ) ;
#72 = CARTESIAN_POINT ( 'NONE',  ( 3.526396152231565067E-13, 2.399999999999990585, 101.0000000000000000 ) ) ;
#73 = ORIENTED_EDGE ( 'NONE', *, *, #229, .T. ) ;
#74 = PLANE ( 'NONE',  #213 ) ;
#75 = PERSON_AND_ORGANIZATION ( #129, #139 ) ;
#76 = ADVANCED_FACE ( 'NONE', ( #84, #163 ), #234, .T. ) ;
#77 = APPROVAL_STATUS ( 'not_yet_approved' ) ;
#78 = CALENDAR_DATE ( 2023, 28, 9 ) ;
#79 = CARTESIAN_POINT ( 'NONE',  ( 3.505447264198505131E-13, 2.999999999999990674, 100.3999999999999915 ) ) ;
#80 = CONICAL_SURFACE ( 'NONE', #145, 3.255000000000000338, 0.5235987755983018133 ) ;
#81 = MANIFOLD_SOLID_BREP ( 'Corps-Déplacer/Copier1[1]', #61 ) ;
#82 = DIRECTION ( 'NONE',  ( 0.000000000000000000, 1.000000000000000000, 0.000000000000000000 ) ) ;
#83 = ADVANCED_FACE ( 'NONE', ( #116 ), #64, .F. ) ;
#84 = FACE_OUTER_BOUND ( 'NONE', #5, .T. ) ;
#85 = APPLICATION_CONTEXT ( 'configuration controlled 3d designs of mechanical parts and assemblies' ) ;
#86 = AXIS2_PLACEMENT_3D ( 'NONE', #123, #105, #176 ) ;
#87 = DIRECTION ( 'NONE',  ( 4.141784826639216822E-31, 1.000000000000000000, 1.165808787618821953E-16 ) ) ;
#88 = MANIFOLD_SOLID_BREP ( 'Corps-Déplacer/Copier1[2]', #195 ) ;
#89 = APPROVAL_ROLE ( '' ) ;
#90 = EDGE_LOOP ( 'NONE', ( #187 ) ) ;
#91 = FACE_OUTER_BOUND ( 'NONE', #132, .T. ) ;
#92 = CIRCLE ( 'NONE', #86, 3.255000000000000338 ) ;
#93 = PERSON_AND_ORGANIZATION ( #129, #139 ) ;
#94 = CARTESIAN_POINT ( 'NONE',  ( 1.396592535537251764E-15, 3.254999999999999893, 0.3999999999999995226 ) ) ;
#95 = EDGE_LOOP ( 'NONE', ( #157 ) ) ;
#96 = PRODUCT_DEFINITION_SHAPE ( 'NONE', 'NONE',  #237 ) ;
#97 = APPROVAL ( #206, 'UNSPECIFIED' ) ;
#98 = FACE_OUTER_BOUND ( 'NONE', #114, .T. ) ;
#99 = CONICAL_SURFACE ( 'NONE', #15, 2.854999999999998650, 0.7853981633974508325 ) ;
#100 = PRODUCT_DEFINITION_FORMATION_WITH_SPECIFIED_SOURCE ( 'ANY', '', #47, .NOT_KNOWN. ) ;
#101 = DIRECTION ( 'NONE',  ( -3.491481338843133355E-15, 1.224646799147353207E-16, -1.000000000000000000 ) ) ;
#102 = APPLICATION_PROTOCOL_DEFINITION ( 'international standard', 'config_control_design', 1994, #85 ) ;
#103 = EDGE_LOOP ( 'NONE', ( #73 ) ) ;
#104 = CIRCLE ( 'NONE', #3, 3.254999999999999893 ) ;
#105 = DIRECTION ( 'NONE',  ( -3.491481338843133355E-15, 1.224646799147353207E-16, -1.000000000000000000 ) ) ;
#106 = APPROVAL_DATE_TIME ( #165, #192 ) ;
#107 = SECURITY_CLASSIFICATION_LEVEL ( 'unclassified' ) ;
#108 = AXIS2_PLACEMENT_3D ( 'NONE', #130, #1, #222 ) ;
#109 = CC_DESIGN_APPROVAL ( #192, ( #237 ) ) ;
#110 = DIRECTION ( 'NONE',  ( -3.491481338843133355E-15, 1.224646799147353207E-16, -1.000000000000000000 ) ) ;
#111 = DIRECTION ( 'NONE',  ( -4.275831445896958607E-31, -1.000000000000000000, -1.224646799147353207E-16 ) ) ;
#112 = ORIENTED_EDGE ( 'NONE', *, *, #13, .F. ) ;
#113 = CARTESIAN_POINT ( 'NONE',  ( 5.586370142149013368E-14, 3.254999999999998561, 16.00000000000000000 ) ) ;
#114 = EDGE_LOOP ( 'NONE', ( #68 ) ) ;
#115 =( NAMED_UNIT ( * ) PLANE_ANGLE_UNIT ( ) SI_UNIT ( $, .RADIAN. ) );
#116 = FACE_OUTER_BOUND ( 'NONE', #23, .T. ) ;
#117 = DIRECTION ( 'NONE',  ( -3.491481338843133355E-15, 1.224646799147353207E-16, -1.000000000000000000 ) ) ;
#118 = CIRCLE ( 'NONE', #43, 3.255000000000000338 ) ;
#119 = EDGE_CURVE ( 'NONE', #241, #241, #92, .T. ) ;
#120 = CARTESIAN_POINT ( 'NONE',  ( 0.000000000000000000, 0.000000000000000000, 0.000000000000000000 ) ) ;
#121 = AXIS2_PLACEMENT_3D ( 'NONE', #159, #216, #194 ) ;
#122 = MECHANICAL_CONTEXT ( 'NONE', #238, 'mechanical' ) ;
#123 = CARTESIAN_POINT ( 'NONE',  ( 5.586370142149013368E-14, -1.959434878635765131E-15, 16.00000000000000000 ) ) ;
#124 = PERSON_AND_ORGANIZATION ( #129, #139 ) ;
#125 = EDGE_CURVE ( 'NONE', #152, #152, #118, .T. ) ;
#126 = PERSON_AND_ORGANIZATION_ROLE ( 'design_owner' ) ;
#127 = PERSON_AND_ORGANIZATION_ROLE ( 'creator' ) ;
#128 = CARTESIAN_POINT ( 'NONE',  ( 5.586370142149013368E-14, -1.959434878635765131E-15, 16.00000000000000000 ) ) ;
#129 = PERSON ( 'UNSPECIFIED', 'UNSPECIFIED', 'UNSPECIFIED', ('UNSPECIFIED'), ('UNSPECIFIED'), ('UNSPECIFIED') ) ;
#130 = CARTESIAN_POINT ( 'NONE',  ( 5.740579430499169245E-14, -2.013524215810737259E-15, 16.44167295593008049 ) ) ;
#131 = AXIS2_PLACEMENT_3D ( 'NONE', #173, #11, #211 ) ;
#132 = EDGE_LOOP ( 'NONE', ( #143 ) ) ;
#133 = PLANE ( 'NONE',  #204 ) ;
#134 = FACE_BOUND ( 'NONE', #135, .T. ) ;
#135 = EDGE_LOOP ( 'NONE', ( #112 ) ) ;
#136 = CARTESIAN_POINT ( 'NONE',  ( 5.586370142149013368E-14, -1.959434878635765131E-15, 16.00000000000000000 ) ) ;
#137 = DIRECTION ( 'NONE',  ( -3.491481338843133355E-15, 1.224646799147353207E-16, -1.000000000000000000 ) ) ;
#138 = AXIS2_PLACEMENT_3D ( 'NONE', #180, #219, #225 ) ;
#139 = ORGANIZATION ( 'UNSPECIFIED', 'UNSPECIFIED', '' ) ;
#140 = FACE_OUTER_BOUND ( 'NONE', #155, .T. ) ;
#141 = EDGE_CURVE ( 'NONE', #35, #35, #230, .T. ) ;
#142 = SECURITY_CLASSIFICATION ( '', '', #107 ) ;
#143 = ORIENTED_EDGE ( 'NONE', *, *, #170, .T. ) ;
#144 = ADVANCED_FACE ( 'NONE', ( #203 ), #74, .T. ) ;
#145 = AXIS2_PLACEMENT_3D ( 'NONE', #136, #191, #188 ) ;
#146 = COORDINATED_UNIVERSAL_TIME_OFFSET ( 1, 0, .AHEAD. ) ;
#147 = VERTEX_POINT ( 'NONE', #72 ) ;
#148 = COORDINATED_UNIVERSAL_TIME_OFFSET ( 1, 0, .AHEAD. ) ;
#149 = DIRECTION ( 'NONE',  ( 4.275831445896958607E-31, 1.000000000000000000, 1.224646799147353207E-16 ) ) ;
#150 = AXIS2_PLACEMENT_3D ( 'NONE', #63, #42, #46 ) ;
#151 = CALENDAR_DATE ( 2023, 28, 9 ) ;
#152 = VERTEX_POINT ( 'NONE', #186 ) ;
#153 = CALENDAR_DATE ( 2023, 28, 9 ) ;
#154 = DIRECTION ( 'NONE',  ( 3.491481338843133355E-15, -1.224646799147353207E-16, 1.000000000000000000 ) ) ;
#155 = EDGE_LOOP ( 'NONE', ( #243 ) ) ;
#156 = AXIS2_PLACEMENT_3D ( 'NONE', #39, #56, #57 ) ;
#157 = ORIENTED_EDGE ( 'NONE', *, *, #13, .T. ) ;
#158 = FACE_BOUND ( 'NONE', #90, .T. ) ;
#159 = CARTESIAN_POINT ( 'NONE',  ( 0.000000000000000000, 0.000000000000000000, 0.000000000000000000 ) ) ;
#160 = PLANE ( 'NONE',  #150 ) ;
#161 = LOCAL_TIME ( 15, 33, 11.00000000000000000, #4 ) ;
#162 = ADVANCED_FACE ( 'NONE', ( #91, #134 ), #99, .T. ) ;
#163 = FACE_OUTER_BOUND ( 'NONE', #164, .T. ) ;
#164 = EDGE_LOOP ( 'NONE', ( #226 ) ) ;
#165 = DATE_AND_TIME ( #30, #28 ) ;
#166 = PERSON_AND_ORGANIZATION ( #129, #139 ) ;
#167 = DIRECTION ( 'NONE',  ( 0.000000000000000000, 1.000000000000000000, 0.000000000000000000 ) ) ;
#168 = EDGE_LOOP ( 'NONE', ( #60 ) ) ;
#169 = DIRECTION ( 'NONE',  ( -3.491481338843133355E-15, 1.224646799147353207E-16, -1.000000000000000000 ) ) ;
#170 = EDGE_CURVE ( 'NONE', #22, #22, #104, .T. ) ;
#171 = EDGE_LOOP ( 'NONE', ( #182 ) ) ;
#172 = CARTESIAN_POINT ( 'NONE',  ( -1.220749877803581035E-30, 4.281814179499601336E-32, -3.496366611565691458E-16 ) ) ;
#173 = CARTESIAN_POINT ( 'NONE',  ( 0.000000000000000000, 0.000000000000000000, 0.000000000000000000 ) ) ;
#174 = APPROVAL ( #77, 'UNSPECIFIED' ) ;
#175 = APPROVAL_STATUS ( 'not_yet_approved' ) ;
#176 = DIRECTION ( 'NONE',  ( 0.000000000000000000, 1.000000000000000000, 0.000000000000000000 ) ) ;
#177 = PERSON_AND_ORGANIZATION_ROLE ( 'classification_officer' ) ;
#178 = ORIENTED_EDGE ( 'NONE', *, *, #119, .T. ) ;
#179 = COORDINATED_UNIVERSAL_TIME_OFFSET ( 1, 0, .AHEAD. ) ;
#180 = CARTESIAN_POINT ( 'NONE',  ( 3.505447264198505131E-13, -1.229545386343942402E-14, 100.3999999999999915 ) ) ;
#181 = APPROVAL_DATE_TIME ( #227, #97 ) ;
#182 = ORIENTED_EDGE ( 'NONE', *, *, #141, .F. ) ;
#183 = CC_DESIGN_DATE_AND_TIME_ASSIGNMENT ( #2, #33, ( #237 ) ) ;
#184 = CARTESIAN_POINT ( 'NONE',  ( 5.740579430499169245E-14, 2.999999999999988010, 16.44167295593008049 ) ) ;
#185 = ORIENTED_EDGE ( 'NONE', *, *, #125, .T. ) ;
#186 = CARTESIAN_POINT ( 'NONE',  ( 5.586370142149013368E-14, 3.254999999999998561, 16.00000000000000000 ) ) ;
#187 = ORIENTED_EDGE ( 'NONE', *, *, #141, .T. ) ;
#188 = DIRECTION ( 'NONE',  ( 0.000000000000000000, 1.000000000000000000, 0.000000000000000000 ) ) ;
#189 = APPROVAL_PERSON_ORGANIZATION ( #93, #97, #205 ) ;
#190 = APPLICATION_PROTOCOL_DEFINITION ( 'international standard', 'config_control_design', 1994, #238 ) ;
#191 = DIRECTION ( 'NONE',  ( -3.491481338843133355E-15, 1.224646799147353207E-16, -1.000000000000000000 ) ) ;
#192 = APPROVAL ( #175, 'UNSPECIFIED' ) ;
#193 = ADVANCED_BREP_SHAPE_REPRESENTATION ( '342083', ( #81, #88, #121 ), #54 ) ;
#194 = DIRECTION ( 'NONE',  ( 1.000000000000000000, 0.000000000000000000, 0.000000000000000000 ) ) ;
#195 = CLOSED_SHELL ( 'NONE', ( #76, #21, #144, #162 ) ) ;
#196 = ORIENTED_EDGE ( 'NONE', *, *, #229, .F. ) ;
#197 = AXIS2_PLACEMENT_3D ( 'NONE', #120, #101, #41 ) ;
#198 = LOCAL_TIME ( 15, 33, 11.00000000000000000, #146 ) ;
#199 = PERSON_AND_ORGANIZATION ( #129, #139 ) ;
#200 = EDGE_CURVE ( 'NONE', #7, #7, #239, .T. ) ;
#201 = PERSON_AND_ORGANIZATION ( #129, #139 ) ;
#202 = PRODUCT_RELATED_PRODUCT_CATEGORY ( 'detail', '', ( #47 ) ) ;
#203 = FACE_OUTER_BOUND ( 'NONE', #95, .T. ) ;
#204 = AXIS2_PLACEMENT_3D ( 'NONE', #207, #154, #111 ) ;
#205 = APPROVAL_ROLE ( '' ) ;
#206 = APPROVAL_STATUS ( 'not_yet_approved' ) ;
#207 = CARTESIAN_POINT ( 'NONE',  ( 5.586370142149013368E-14, 2.440859046282170547E-32, 16.00000000000000000 ) ) ;
#208 = EDGE_LOOP ( 'NONE', ( #178 ) ) ;
#209 = CARTESIAN_POINT ( 'NONE',  ( -6.103749389017905175E-31, 2.140907089749800668E-32, -1.748183305782845729E-16 ) ) ;
#210 = AXIS2_PLACEMENT_3D ( 'NONE', #212, #117, #29 ) ;
#211 = DIRECTION ( 'NONE',  ( 4.275831445896958607E-31, 1.000000000000000000, 1.224646799147353207E-16 ) ) ;
#212 = CARTESIAN_POINT ( 'NONE',  ( 3.526396152231565067E-13, 1.799711739194212982E-32, 101.0000000000000000 ) ) ;
#213 = AXIS2_PLACEMENT_3D ( 'NONE', #209, #32, #149 ) ;
#214 = DIRECTION ( 'NONE',  ( -3.491481338843133355E-15, 1.224646799147353207E-16, -1.000000000000000000 ) ) ;
#215 =( LENGTH_UNIT ( ) NAMED_UNIT ( * ) SI_UNIT ( .MILLI., .METRE. ) );
#216 = DIRECTION ( 'NONE',  ( 0.000000000000000000, 0.000000000000000000, 1.000000000000000000 ) ) ;
#217 = CC_DESIGN_DATE_AND_TIME_ASSIGNMENT ( #240, #71, ( #142 ) ) ;
#218 = DATE_AND_TIME ( #151, #198 ) ;
#219 = DIRECTION ( 'NONE',  ( -3.491481338843133355E-15, 1.224646799147353207E-16, -1.000000000000000000 ) ) ;
#220 = CARTESIAN_POINT ( 'NONE',  ( -1.220749877803581035E-30, 4.281814179499601336E-32, -3.496366611565691458E-16 ) ) ;
#221 = CONICAL_SURFACE ( 'NONE', #10, 2.400000000000003464, 0.7853981633974335130 ) ;
#222 = DIRECTION ( 'NONE',  ( 0.000000000000000000, 1.000000000000000000, 0.000000000000000000 ) ) ;
#223 = EDGE_LOOP ( 'NONE', ( #40 ) ) ;
#224 = SHAPE_DEFINITION_REPRESENTATION ( #96, #193 ) ;
#225 = DIRECTION ( 'NONE',  ( 0.000000000000000000, 1.000000000000000000, 0.000000000000000000 ) ) ;
#226 = ORIENTED_EDGE ( 'NONE', *, *, #170, .F. ) ;
#227 = DATE_AND_TIME ( #153, #62 ) ;
#228 = DIRECTION ( 'NONE',  ( -4.275831445896959482E-31, -1.000000000000000000, -1.224646799147353207E-16 ) ) ;
#229 = EDGE_CURVE ( 'NONE', #147, #147, #66, .T. ) ;
#230 = CIRCLE ( 'NONE', #108, 2.999999999999990230 ) ;
#231 = CYLINDRICAL_SURFACE ( 'NONE', #131, 2.999999999999996447 ) ;
#232 = FACE_BOUND ( 'NONE', #103, .T. ) ;
#233 = CC_DESIGN_PERSON_AND_ORGANIZATION_ASSIGNMENT ( #69, #34, ( #237 ) ) ;
#234 = CYLINDRICAL_SURFACE ( 'NONE', #197, 3.254999999999999893 ) ;
#235 = CIRCLE ( 'NONE', #70, 2.854999999999998650 ) ;
#236 = ADVANCED_FACE ( 'NONE', ( #18 ), #133, .F. ) ;
#237 = PRODUCT_DEFINITION ( 'UNKNOWN', '', #100, #37 ) ;
#238 = APPLICATION_CONTEXT ( 'configuration controlled 3d designs of mechanical parts and assemblies' ) ;
#239 = CIRCLE ( 'NONE', #138, 3.000000000000002665 ) ;
#240 = DATE_AND_TIME ( #17, #161 ) ;
#241 = VERTEX_POINT ( 'NONE', #113 ) ;
#242 = UNCERTAINTY_MEASURE_WITH_UNIT (LENGTH_MEASURE( 1.000000000000000082E-05 ), #215, 'distance_accuracy_value', 'NONE');
#243 = ORIENTED_EDGE ( 'NONE', *, *, #119, .F. ) ;
ENDSEC;
END-ISO-10303-21;
