ISO-10303-21;
HEADER;
FILE_DESCRIPTION (( 'STEP AP203' ),
    '1' );
FILE_NAME ('342082.step',
    '2023-09-28T13:33:10',
    ( '' ),
    ( '' ),
    'SwSTEP 2.0',
    'SolidWorks 2022',
    '' );
FILE_SCHEMA (( 'CONFIG_CONTROL_DESIGN' ));
ENDSEC;

DATA;
#1 = PERSON_AND_ORGANIZATION ( #229, #209 ) ;
#2 = CLOSED_SHELL ( 'NONE', ( #208, #99, #219, #86 ) ) ;
#3 = PERSON_AND_ORGANIZATION ( #229, #209 ) ;
#4 = DIRECTION ( 'NONE',  ( 4.275831445896958607E-31, 1.000000000000000000, 1.224646799147353207E-16 ) ) ;
#5 = APPROVAL ( #18, 'UNSPECIFIED' ) ;
#6 = CALENDAR_DATE ( 2023, 28, 9 ) ;
#7 = CIRCLE ( 'NONE', #222, 3.250000000000000000 ) ;
#8 = ORIENTED_EDGE ( 'NONE', *, *, #129, .F. ) ;
#9 = ORIENTED_EDGE ( 'NONE', *, *, #64, .F. ) ;
#10 = DIRECTION ( 'NONE',  ( -3.491481338843133355E-15, 1.224646799147353207E-16, -1.000000000000000000 ) ) ;
#11 = ORIENTED_EDGE ( 'NONE', *, *, #144, .F. ) ;
#12 = EDGE_CURVE ( 'NONE', #120, #120, #113, .T. ) ;
#13 = AXIS2_PLACEMENT_3D ( 'NONE', #160, #170, #161 ) ;
#14 = APPLICATION_CONTEXT ( 'configuration controlled 3d designs of mechanical parts and assemblies' ) ;
#15 = ORIENTED_EDGE ( 'NONE', *, *, #152, .F. ) ;
#16 = APPROVAL_PERSON_ORGANIZATION ( #114, #19, #133 ) ;
#17 = CC_DESIGN_PERSON_AND_ORGANIZATION_ASSIGNMENT ( #3, #227, ( #217 ) ) ;
#18 = APPROVAL_STATUS ( 'not_yet_approved' ) ;
#19 = APPROVAL ( #157, 'UNSPECIFIED' ) ;
#20 = CIRCLE ( 'NONE', #181, 2.849999999999998312 ) ;
#21 = COORDINATED_UNIVERSAL_TIME_OFFSET ( 1, 0, .AHEAD. ) ;
#22 = CARTESIAN_POINT ( 'NONE',  ( 3.505447264198505131E-13, -1.229545386343942402E-14, 100.3999999999999915 ) ) ;
#23 = DATE_AND_TIME ( #225, #199 ) ;
#24 = FACE_BOUND ( 'NONE', #74, .T. ) ;
#25 = ORIENTED_EDGE ( 'NONE', *, *, #129, .T. ) ;
#26 =( GEOMETRIC_REPRESENTATION_CONTEXT ( 3 ) GLOBAL_UNCERTAINTY_ASSIGNED_CONTEXT ( ( #40 ) ) GLOBAL_UNIT_ASSIGNED_CONTEXT ( ( #32, #185, #131 ) ) REPRESENTATION_CONTEXT ( 'NONE', 'WORKASPACE' ) );
#27 = DIRECTION ( 'NONE',  ( -4.275831445896958607E-31, -1.000000000000000000, -1.224646799147353207E-16 ) ) ;
#28 = ADVANCED_FACE ( 'NONE', ( #176, #51 ), #87, .T. ) ;
#29 = FACE_OUTER_BOUND ( 'NONE', #166, .T. ) ;
#30 = CARTESIAN_POINT ( 'NONE',  ( 3.526396152231565067E-13, -1.236893267138826732E-14, 101.0000000000000000 ) ) ;
#31 = EDGE_LOOP ( 'NONE', ( #8 ) ) ;
#32 =( LENGTH_UNIT ( ) NAMED_UNIT ( * ) SI_UNIT ( .MILLI., .METRE. ) );
#33 = CIRCLE ( 'NONE', #94, 3.250000000000000444 ) ;
#34 = DIRECTION ( 'NONE',  ( 0.000000000000000000, 0.000000000000000000, 1.000000000000000000 ) ) ;
#35 = DATE_AND_TIME ( #205, #226 ) ;
#36 = MECHANICAL_CONTEXT ( 'NONE', #14, 'mechanical' ) ;
#37 = AXIS2_PLACEMENT_3D ( 'NONE', #201, #79, #221 ) ;
#38 = DATE_AND_TIME ( #6, #52 ) ;
#39 = CARTESIAN_POINT ( 'NONE',  ( 5.586370142149013368E-14, -1.959434878635765131E-15, 16.00000000000000000 ) ) ;
#40 = UNCERTAINTY_MEASURE_WITH_UNIT (LENGTH_MEASURE( 1.000000000000000082E-05 ), #32, 'distance_accuracy_value', 'NONE');
#41 = CARTESIAN_POINT ( 'NONE',  ( -1.710569414459005214E-46, 2.849999999999998312, 0.000000000000000000 ) ) ;
#42 = CARTESIAN_POINT ( 'NONE',  ( 5.737555718962892371E-14, 2.999999999999988010, 16.43301270189223473 ) ) ;
#43 = DIRECTION ( 'NONE',  ( -3.491481338843133355E-15, 1.224646799147353207E-16, -1.000000000000000000 ) ) ;
#44 = CLOSED_SHELL ( 'NONE', ( #59, #28, #193, #174, #108 ) ) ;
#45 = DIRECTION ( 'NONE',  ( -3.491481338843133355E-15, 1.224646799147353207E-16, -1.000000000000000000 ) ) ;
#46 = PLANE ( 'NONE',  #168 ) ;
#47 = CARTESIAN_POINT ( 'NONE',  ( 3.505447264198505131E-13, 2.999999999999990674, 100.3999999999999915 ) ) ;
#48 = PRODUCT_DEFINITION_SHAPE ( 'NONE', 'NONE',  #126 ) ;
#49 = EDGE_CURVE ( 'NONE', #138, #138, #175, .T. ) ;
#50 = EDGE_LOOP ( 'NONE', ( #11 ) ) ;
#51 = FACE_OUTER_BOUND ( 'NONE', #213, .T. ) ;
#52 = LOCAL_TIME ( 15, 33, 10.00000000000000000, #100 ) ;
#53 = DIRECTION ( 'NONE',  ( 3.491481338843133355E-15, -1.224646799147353207E-16, 1.000000000000000000 ) ) ;
#54 = CC_DESIGN_DATE_AND_TIME_ASSIGNMENT ( #57, #203, ( #136 ) ) ;
#55 = AXIS2_PLACEMENT_3D ( 'NONE', #150, #110, #188 ) ;
#56 = FACE_OUTER_BOUND ( 'NONE', #50, .T. ) ;
#57 = DATE_AND_TIME ( #95, #156 ) ;
#58 = AXIS2_PLACEMENT_3D ( 'NONE', #207, #34, #98 ) ;
#59 = ADVANCED_FACE ( 'NONE', ( #215 ), #46, .F. ) ;
#60 = APPROVAL_ROLE ( '' ) ;
#61 = PERSON_AND_ORGANIZATION ( #229, #209 ) ;
#62 = MANIFOLD_SOLID_BREP ( 'Corps-Déplacer/Copier1[2]', #2 ) ;
#63 = DIRECTION ( 'NONE',  ( -3.491481338843133355E-15, 1.224646799147353207E-16, -1.000000000000000000 ) ) ;
#64 = EDGE_CURVE ( 'NONE', #91, #91, #20, .T. ) ;
#65 = AXIS2_PLACEMENT_3D ( 'NONE', #30, #106, #218 ) ;
#66 = CYLINDRICAL_SURFACE ( 'NONE', #130, 3.250000000000000444 ) ;
#67 = APPROVAL_DATE_TIME ( #23, #240 ) ;
#68 = PLANE ( 'NONE',  #237 ) ;
#69 = DIRECTION ( 'NONE',  ( -3.491481338843133355E-15, 1.224646799147353207E-16, -1.000000000000000000 ) ) ;
#70 = CARTESIAN_POINT ( 'NONE',  ( 0.000000000000000000, 0.000000000000000000, 0.000000000000000000 ) ) ;
#71 = EDGE_LOOP ( 'NONE', ( #103 ) ) ;
#72 = CONICAL_SURFACE ( 'NONE', #37, 2.849999999999998312, 0.7853981633974502774 ) ;
#73 = EDGE_LOOP ( 'NONE', ( #200 ) ) ;
#74 = EDGE_LOOP ( 'NONE', ( #139 ) ) ;
#75 = ORIENTED_EDGE ( 'NONE', *, *, #151, .T. ) ;
#76 = AXIS2_PLACEMENT_3D ( 'NONE', #190, #119, #4 ) ;
#77 = FACE_BOUND ( 'NONE', #179, .T. ) ;
#78 = APPLICATION_CONTEXT ( 'configuration controlled 3d designs of mechanical parts and assemblies' ) ;
#79 = DIRECTION ( 'NONE',  ( 3.491481338843133355E-15, -1.224646799147353207E-16, 1.000000000000000000 ) ) ;
#80 = PERSON_AND_ORGANIZATION ( #229, #209 ) ;
#81 = DIRECTION ( 'NONE',  ( 4.275831445896958607E-31, 1.000000000000000000, 1.224646799147353207E-16 ) ) ;
#82 = APPROVAL_DATE_TIME ( #38, #19 ) ;
#83 = APPROVAL_PERSON_ORGANIZATION ( #80, #240, #155 ) ;
#84 = CALENDAR_DATE ( 2023, 28, 9 ) ;
#85 = PERSON_AND_ORGANIZATION ( #229, #209 ) ;
#86 = ADVANCED_FACE ( 'NONE', ( #167, #77 ), #72, .T. ) ;
#87 = CONICAL_SURFACE ( 'NONE', #141, 3.250000000000000444, 0.5235987755983005920 ) ;
#88 = EDGE_LOOP ( 'NONE', ( #25 ) ) ;
#89 = CARTESIAN_POINT ( 'NONE',  ( -6.093059810403162818E-31, 2.137157690293145996E-32, -1.745121688784977291E-16 ) ) ;
#90 = CIRCLE ( 'NONE', #128, 3.000000000000002665 ) ;
#91 = VERTEX_POINT ( 'NONE', #41 ) ;
#92 = CARTESIAN_POINT ( 'NONE',  ( 5.586370142149013368E-14, 2.437109646825515602E-32, 16.00000000000000000 ) ) ;
#93 = APPROVAL_PERSON_ORGANIZATION ( #61, #5, #60 ) ;
#94 = AXIS2_PLACEMENT_3D ( 'NONE', #117, #63, #192 ) ;
#95 = CALENDAR_DATE ( 2023, 28, 9 ) ;
#96 = APPROVAL_DATE_TIME ( #153, #5 ) ;
#97 = DIRECTION ( 'NONE',  ( 0.000000000000000000, 1.000000000000000000, 0.000000000000000000 ) ) ;
#98 = DIRECTION ( 'NONE',  ( 1.000000000000000000, 0.000000000000000000, 0.000000000000000000 ) ) ;
#99 = ADVANCED_FACE ( 'NONE', ( #56 ), #243, .T. ) ;
#100 = COORDINATED_UNIVERSAL_TIME_OFFSET ( 1, 0, .AHEAD. ) ;
#101 = DIRECTION ( 'NONE',  ( 0.000000000000000000, 1.000000000000000000, 0.000000000000000000 ) ) ;
#102 = AXIS2_PLACEMENT_3D ( 'NONE', #70, #198, #109 ) ;
#103 = ORIENTED_EDGE ( 'NONE', *, *, #49, .F. ) ;
#104 = DIRECTION ( 'NONE',  ( 0.000000000000000000, 1.000000000000000000, 0.000000000000000000 ) ) ;
#105 = VERTEX_POINT ( 'NONE', #238 ) ;
#106 = DIRECTION ( 'NONE',  ( -3.491481338843133355E-15, 1.224646799147353207E-16, -1.000000000000000000 ) ) ;
#107 = CC_DESIGN_APPROVAL ( #5, ( #126 ) ) ;
#108 = ADVANCED_FACE ( 'NONE', ( #228 ), #206, .F. ) ;
#109 = DIRECTION ( 'NONE',  ( 4.275831445896958607E-31, 1.000000000000000000, 1.224646799147353207E-16 ) ) ;
#110 = DIRECTION ( 'NONE',  ( 3.491481338843133355E-15, -1.224646799147353207E-16, 1.000000000000000000 ) ) ;
#111 = AXIS2_PLACEMENT_3D ( 'NONE', #39, #173, #97 ) ;
#112 = ADVANCED_BREP_SHAPE_REPRESENTATION ( '342082', ( #223, #62, #58 ), #26 ) ;
#113 = CIRCLE ( 'NONE', #65, 2.400000000000003464 ) ;
#114 = PERSON_AND_ORGANIZATION ( #229, #209 ) ;
#115 = APPLICATION_PROTOCOL_DEFINITION ( 'international standard', 'config_control_design', 1994, #78 ) ;
#116 = CIRCLE ( 'NONE', #111, 3.250000000000000444 ) ;
#117 = CARTESIAN_POINT ( 'NONE',  ( 5.586370142149013368E-14, -1.959434878635765131E-15, 16.00000000000000000 ) ) ;
#118 = PERSON_AND_ORGANIZATION ( #229, #209 ) ;
#119 = DIRECTION ( 'NONE',  ( -3.491481338843133355E-15, 1.224646799147353207E-16, -1.000000000000000000 ) ) ;
#120 = VERTEX_POINT ( 'NONE', #211 ) ;
#121 = VERTEX_POINT ( 'NONE', #235 ) ;
#122 = PRODUCT_DEFINITION_FORMATION_WITH_SPECIFIED_SOURCE ( 'ANY', '', #217, .NOT_KNOWN. ) ;
#123 = PRODUCT_RELATED_PRODUCT_CATEGORY ( 'detail', '', ( #217 ) ) ;
#124 = EDGE_LOOP ( 'NONE', ( #142 ) ) ;
#125 = FACE_OUTER_BOUND ( 'NONE', #182, .T. ) ;
#126 = PRODUCT_DEFINITION ( 'UNKNOWN', '', #122, #154 ) ;
#127 = CARTESIAN_POINT ( 'NONE',  ( -1.218611962080632564E-30, 4.274315380586291993E-32, -3.490243377569954582E-16 ) ) ;
#128 = AXIS2_PLACEMENT_3D ( 'NONE', #22, #132, #101 ) ;
#129 = EDGE_CURVE ( 'NONE', #143, #143, #7, .T. ) ;
#130 = AXIS2_PLACEMENT_3D ( 'NONE', #163, #10, #234 ) ;
#131 =( NAMED_UNIT ( * ) SI_UNIT ( $, .STERADIAN. ) SOLID_ANGLE_UNIT ( ) );
#132 = DIRECTION ( 'NONE',  ( -3.491481338843133355E-15, 1.224646799147353207E-16, -1.000000000000000000 ) ) ;
#133 = APPROVAL_ROLE ( '' ) ;
#134 = DIRECTION ( 'NONE',  ( 4.148156803295584847E-31, 1.000000000000000000, 1.167602339599773987E-16 ) ) ;
#135 = SECURITY_CLASSIFICATION_LEVEL ( 'unclassified' ) ;
#136 = SECURITY_CLASSIFICATION ( '', '', #135 ) ;
#137 = FACE_OUTER_BOUND ( 'NONE', #71, .T. ) ;
#138 = VERTEX_POINT ( 'NONE', #42 ) ;
#139 = ORIENTED_EDGE ( 'NONE', *, *, #12, .T. ) ;
#140 = VERTEX_POINT ( 'NONE', #47 ) ;
#141 = AXIS2_PLACEMENT_3D ( 'NONE', #183, #69, #197 ) ;
#142 = ORIENTED_EDGE ( 'NONE', *, *, #151, .F. ) ;
#143 = VERTEX_POINT ( 'NONE', #196 ) ;
#144 = EDGE_CURVE ( 'NONE', #121, #121, #33, .T. ) ;
#145 = ORIENTED_EDGE ( 'NONE', *, *, #144, .T. ) ;
#146 = CC_DESIGN_PERSON_AND_ORGANIZATION_ASSIGNMENT ( #118, #224, ( #136 ) ) ;
#147 = ORIENTED_EDGE ( 'NONE', *, *, #12, .F. ) ;
#148 = EDGE_LOOP ( 'NONE', ( #147 ) ) ;
#149 = AXIS2_PLACEMENT_3D ( 'NONE', #220, #43, #104 ) ;
#150 = CARTESIAN_POINT ( 'NONE',  ( 5.586370142149013368E-14, 2.437109646825515602E-32, 16.00000000000000000 ) ) ;
#151 = EDGE_CURVE ( 'NONE', #140, #140, #90, .T. ) ;
#152 = EDGE_CURVE ( 'NONE', #105, #105, #116, .T. ) ;
#153 = DATE_AND_TIME ( #84, #184 ) ;
#154 = DESIGN_CONTEXT ( 'detailed design', #78, 'design' ) ;
#155 = APPROVAL_ROLE ( '' ) ;
#156 = LOCAL_TIME ( 15, 33, 10.00000000000000000, #194 ) ;
#157 = APPROVAL_STATUS ( 'not_yet_approved' ) ;
#158 = CARTESIAN_POINT ( 'NONE',  ( 1.396592535537251962E-15, -4.898587196589407529E-17, 0.3999999999999995781 ) ) ;
#159 = CC_DESIGN_SECURITY_CLASSIFICATION ( #136, ( #122 ) ) ;
#160 = CARTESIAN_POINT ( 'NONE',  ( 3.526396152231565067E-13, -1.236893267138826732E-14, 101.0000000000000000 ) ) ;
#161 = DIRECTION ( 'NONE',  ( 0.000000000000000000, 1.000000000000000000, 0.000000000000000000 ) ) ;
#162 = EDGE_LOOP ( 'NONE', ( #216 ) ) ;
#163 = CARTESIAN_POINT ( 'NONE',  ( 0.000000000000000000, 0.000000000000000000, 0.000000000000000000 ) ) ;
#164 = CC_DESIGN_PERSON_AND_ORGANIZATION_ASSIGNMENT ( #210, #242, ( #122 ) ) ;
#165 = FACE_OUTER_BOUND ( 'NONE', #31, .T. ) ;
#166 = EDGE_LOOP ( 'NONE', ( #145 ) ) ;
#167 = FACE_OUTER_BOUND ( 'NONE', #88, .T. ) ;
#168 = AXIS2_PLACEMENT_3D ( 'NONE', #92, #53, #27 ) ;
#169 = COORDINATED_UNIVERSAL_TIME_OFFSET ( 1, 0, .AHEAD. ) ;
#170 = DIRECTION ( 'NONE',  ( -3.491481338843133355E-15, 1.224646799147353207E-16, -1.000000000000000000 ) ) ;
#171 = PERSON_AND_ORGANIZATION_ROLE ( 'creator' ) ;
#172 = APPLICATION_PROTOCOL_DEFINITION ( 'international standard', 'config_control_design', 1994, #14 ) ;
#173 = DIRECTION ( 'NONE',  ( -3.491481338843133355E-15, 1.224646799147353207E-16, -1.000000000000000000 ) ) ;
#174 = ADVANCED_FACE ( 'NONE', ( #195, #24 ), #204, .T. ) ;
#175 = CIRCLE ( 'NONE', #149, 2.999999999999990230 ) ;
#176 = FACE_BOUND ( 'NONE', #162, .T. ) ;
#177 = ORIENTED_EDGE ( 'NONE', *, *, #152, .T. ) ;
#178 = CYLINDRICAL_SURFACE ( 'NONE', #102, 2.999999999999996447 ) ;
#179 = EDGE_LOOP ( 'NONE', ( #9 ) ) ;
#180 = FACE_OUTER_BOUND ( 'NONE', #73, .T. ) ;
#181 = AXIS2_PLACEMENT_3D ( 'NONE', #127, #186, #81 ) ;
#182 = EDGE_LOOP ( 'NONE', ( #75 ) ) ;
#183 = CARTESIAN_POINT ( 'NONE',  ( 5.586370142149013368E-14, -1.959434878635765131E-15, 16.00000000000000000 ) ) ;
#184 = LOCAL_TIME ( 15, 33, 10.00000000000000000, #189 ) ;
#185 =( NAMED_UNIT ( * ) PLANE_ANGLE_UNIT ( ) SI_UNIT ( $, .RADIAN. ) );
#186 = DIRECTION ( 'NONE',  ( -3.491481338843133355E-15, 1.224646799147353207E-16, -1.000000000000000000 ) ) ;
#187 = APPROVAL_STATUS ( 'not_yet_approved' ) ;
#188 = DIRECTION ( 'NONE',  ( -4.275831445896958607E-31, -1.000000000000000000, -1.224646799147353207E-16 ) ) ;
#189 = COORDINATED_UNIVERSAL_TIME_OFFSET ( 1, 0, .AHEAD. ) ;
#190 = CARTESIAN_POINT ( 'NONE',  ( 3.526396152231565067E-13, 1.799711739194212982E-32, 101.0000000000000000 ) ) ;
#191 = DATE_TIME_ROLE ( 'creation_date' ) ;
#192 = DIRECTION ( 'NONE',  ( 0.000000000000000000, 1.000000000000000000, 0.000000000000000000 ) ) ;
#193 = ADVANCED_FACE ( 'NONE', ( #137, #125 ), #178, .T. ) ;
#194 = COORDINATED_UNIVERSAL_TIME_OFFSET ( 1, 0, .AHEAD. ) ;
#195 = FACE_OUTER_BOUND ( 'NONE', #124, .T. ) ;
#196 = CARTESIAN_POINT ( 'NONE',  ( 1.396592535537253342E-15, 3.250000000000000000, 0.3999999999999999667 ) ) ;
#197 = DIRECTION ( 'NONE',  ( 0.000000000000000000, 1.000000000000000000, 0.000000000000000000 ) ) ;
#198 = DIRECTION ( 'NONE',  ( -3.491481338843133355E-15, 1.224646799147353207E-16, -1.000000000000000000 ) ) ;
#199 = LOCAL_TIME ( 15, 33, 10.00000000000000000, #169 ) ;
#200 = ORIENTED_EDGE ( 'NONE', *, *, #64, .T. ) ;
#201 = CARTESIAN_POINT ( 'NONE',  ( -1.218611962080632564E-30, 4.274315380586291993E-32, -3.490243377569954582E-16 ) ) ;
#202 = CC_DESIGN_PERSON_AND_ORGANIZATION_ASSIGNMENT ( #85, #231, ( #122 ) ) ;
#203 = DATE_TIME_ROLE ( 'classification_date' ) ;
#204 = CONICAL_SURFACE ( 'NONE', #13, 2.400000000000003464, 0.7853981633974335130 ) ;
#205 = CALENDAR_DATE ( 2023, 28, 9 ) ;
#206 = PLANE ( 'NONE',  #76 ) ;
#207 = CARTESIAN_POINT ( 'NONE',  ( 0.000000000000000000, 0.000000000000000000, 0.000000000000000000 ) ) ;
#208 = ADVANCED_FACE ( 'NONE', ( #29, #165 ), #66, .T. ) ;
#209 = ORGANIZATION ( 'UNSPECIFIED', 'UNSPECIFIED', '' ) ;
#210 = PERSON_AND_ORGANIZATION ( #229, #209 ) ;
#211 = CARTESIAN_POINT ( 'NONE',  ( 3.526396152231565067E-13, 2.399999999999990585, 101.0000000000000000 ) ) ;
#212 = DIRECTION ( 'NONE',  ( 4.275831445896958607E-31, 1.000000000000000000, 1.224646799147353207E-16 ) ) ;
#213 = EDGE_LOOP ( 'NONE', ( #15 ) ) ;
#214 = CC_DESIGN_APPROVAL ( #240, ( #136 ) ) ;
#215 = FACE_OUTER_BOUND ( 'NONE', #236, .T. ) ;
#216 = ORIENTED_EDGE ( 'NONE', *, *, #49, .T. ) ;
#217 = PRODUCT ( '342082', '342082', '', ( #36 ) ) ;
#218 = DIRECTION ( 'NONE',  ( 0.000000000000000000, 1.000000000000000000, 0.000000000000000000 ) ) ;
#219 = ADVANCED_FACE ( 'NONE', ( #180 ), #68, .T. ) ;
#220 = CARTESIAN_POINT ( 'NONE',  ( 5.737555718962892371E-14, -2.012463640572012215E-15, 16.43301270189223473 ) ) ;
#221 = DIRECTION ( 'NONE',  ( -4.275831445896957731E-31, -1.000000000000000000, -1.224646799147353207E-16 ) ) ;
#222 = AXIS2_PLACEMENT_3D ( 'NONE', #158, #230, #134 ) ;
#223 = MANIFOLD_SOLID_BREP ( 'Corps-Déplacer/Copier1[1]', #44 ) ;
#224 = PERSON_AND_ORGANIZATION_ROLE ( 'classification_officer' ) ;
#225 = CALENDAR_DATE ( 2023, 28, 9 ) ;
#226 = LOCAL_TIME ( 15, 33, 10.00000000000000000, #21 ) ;
#227 = PERSON_AND_ORGANIZATION_ROLE ( 'design_owner' ) ;
#228 = FACE_OUTER_BOUND ( 'NONE', #148, .T. ) ;
#229 = PERSON ( 'UNSPECIFIED', 'UNSPECIFIED', 'UNSPECIFIED', ('UNSPECIFIED'), ('UNSPECIFIED'), ('UNSPECIFIED') ) ;
#230 = DIRECTION ( 'NONE',  ( -3.491481338843133355E-15, 1.224646799147353207E-16, -1.000000000000000000 ) ) ;
#231 = PERSON_AND_ORGANIZATION_ROLE ( 'creator' ) ;
#232 = CC_DESIGN_PERSON_AND_ORGANIZATION_ASSIGNMENT ( #1, #171, ( #126 ) ) ;
#233 = SHAPE_DEFINITION_REPRESENTATION ( #48, #112 ) ;
#234 = DIRECTION ( 'NONE',  ( 4.275831445896958607E-31, 1.000000000000000000, 1.224646799147353207E-16 ) ) ;
#235 = CARTESIAN_POINT ( 'NONE',  ( 5.586370142149013368E-14, 3.249999999999998224, 16.00000000000000000 ) ) ;
#236 = EDGE_LOOP ( 'NONE', ( #177 ) ) ;
#237 = AXIS2_PLACEMENT_3D ( 'NONE', #89, #45, #212 ) ;
#238 = CARTESIAN_POINT ( 'NONE',  ( 5.586370142149013368E-14, 3.249999999999998224, 16.00000000000000000 ) ) ;
#239 = CC_DESIGN_DATE_AND_TIME_ASSIGNMENT ( #35, #191, ( #126 ) ) ;
#240 = APPROVAL ( #187, 'UNSPECIFIED' ) ;
#241 = CC_DESIGN_APPROVAL ( #19, ( #122 ) ) ;
#242 = PERSON_AND_ORGANIZATION_ROLE ( 'design_supplier' ) ;
#243 = PLANE ( 'NONE',  #55 ) ;
ENDSEC;
END-ISO-10303-21;
