ISO-10303-21;
HEADER;
FILE_DESCRIPTION (( 'STEP AP203' ),
    '1' );
FILE_NAME ('342072.step',
    '2023-09-28T13:33:10',
    ( '' ),
    ( '' ),
    'SwSTEP 2.0',
    'SolidWorks 2022',
    '' );
FILE_SCHEMA (( 'CONFIG_CONTROL_DESIGN' ));
ENDSEC;

DATA;
#1 = AXIS2_PLACEMENT_3D ( 'NONE', #217, #201, #123 ) ;
#2 = CC_DESIGN_PERSON_AND_ORGANIZATION_ASSIGNMENT ( #239, #66, ( #215 ) ) ;
#3 = DIRECTION ( 'NONE',  ( 0.000000000000000000, 1.000000000000000000, 0.000000000000000000 ) ) ;
#4 = APPROVAL_PERSON_ORGANIZATION ( #165, #174, #93 ) ;
#5 = EDGE_LOOP ( 'NONE', ( #95 ) ) ;
#6 = CC_DESIGN_DATE_AND_TIME_ASSIGNMENT ( #202, #138, ( #106 ) ) ;
#7 = CYLINDRICAL_SURFACE ( 'NONE', #126, 2.999999999999996447 ) ;
#8 = CARTESIAN_POINT ( 'NONE',  ( 5.586370142149013368E-14, 3.199999999999998401, 16.00000000000000000 ) ) ;
#9 = DIRECTION ( 'NONE',  ( -3.491481338843133355E-15, 1.224646799147353207E-16, -1.000000000000000000 ) ) ;
#10 = DIRECTION ( 'NONE',  ( 4.275831445896958607E-31, 1.000000000000000000, 1.224646799147353207E-16 ) ) ;
#11 = DIRECTION ( 'NONE',  ( -3.491481338843133355E-15, 1.224646799147353207E-16, -1.000000000000000000 ) ) ;
#12 = APPLICATION_PROTOCOL_DEFINITION ( 'international standard', 'config_control_design', 1994, #146 ) ;
#13 = CC_DESIGN_PERSON_AND_ORGANIZATION_ASSIGNMENT ( #14, #49, ( #64 ) ) ;
#14 = PERSON_AND_ORGANIZATION ( #164, #142 ) ;
#15 = APPLICATION_PROTOCOL_DEFINITION ( 'international standard', 'config_control_design', 1994, #53 ) ;
#16 = CIRCLE ( 'NONE', #241, 3.200000000000000178 ) ;
#17 = EDGE_LOOP ( 'NONE', ( #169 ) ) ;
#18 = EDGE_CURVE ( 'NONE', #103, #103, #50, .T. ) ;
#19 = ORIENTED_EDGE ( 'NONE', *, *, #30, .F. ) ;
#20 = CC_DESIGN_APPROVAL ( #134, ( #106 ) ) ;
#21 = EDGE_LOOP ( 'NONE', ( #150 ) ) ;
#22 = PERSON_AND_ORGANIZATION_ROLE ( 'classification_officer' ) ;
#23 = EDGE_LOOP ( 'NONE', ( #207 ) ) ;
#24 = FACE_BOUND ( 'NONE', #23, .T. ) ;
#25 = CARTESIAN_POINT ( 'NONE',  ( 5.586370142149013368E-14, -1.959434878635765131E-15, 16.00000000000000000 ) ) ;
#26 = VERTEX_POINT ( 'NONE', #98 ) ;
#27 = DIRECTION ( 'NONE',  ( -3.491481338843133355E-15, 1.224646799147353207E-16, -1.000000000000000000 ) ) ;
#28 = DIRECTION ( 'NONE',  ( 4.275831445896958607E-31, 1.000000000000000000, 1.224646799147353207E-16 ) ) ;
#29 = DIRECTION ( 'NONE',  ( -4.275831445896958607E-31, -1.000000000000000000, -1.224646799147353207E-16 ) ) ;
#30 = EDGE_CURVE ( 'NONE', #179, #179, #157, .T. ) ;
#31 = LOCAL_TIME ( 15, 33, 10.00000000000000000, #228 ) ;
#32 =( NAMED_UNIT ( * ) SI_UNIT ( $, .STERADIAN. ) SOLID_ANGLE_UNIT ( ) );
#33 = COORDINATED_UNIVERSAL_TIME_OFFSET ( 1, 0, .AHEAD. ) ;
#34 = CC_DESIGN_SECURITY_CLASSIFICATION ( #109, ( #215 ) ) ;
#35 = EDGE_LOOP ( 'NONE', ( #143 ) ) ;
#36 = DATE_AND_TIME ( #188, #167 ) ;
#37 = EDGE_LOOP ( 'NONE', ( #68 ) ) ;
#38 = ORIENTED_EDGE ( 'NONE', *, *, #185, .T. ) ;
#39 = EDGE_LOOP ( 'NONE', ( #229 ) ) ;
#40 = SHAPE_DEFINITION_REPRESENTATION ( #216, #52 ) ;
#41 = FACE_OUTER_BOUND ( 'NONE', #5, .T. ) ;
#42 = FACE_BOUND ( 'NONE', #35, .T. ) ;
#43 = CARTESIAN_POINT ( 'NONE',  ( 3.505447264198505131E-13, -1.229545386343942402E-14, 100.3999999999999915 ) ) ;
#44 = EDGE_CURVE ( 'NONE', #26, #26, #88, .T. ) ;
#45 = CARTESIAN_POINT ( 'NONE',  ( 3.505447264198505131E-13, 2.999999999999990674, 100.3999999999999915 ) ) ;
#46 = FACE_OUTER_BOUND ( 'NONE', #17, .T. ) ;
#47 = AXIS2_PLACEMENT_3D ( 'NONE', #172, #170, #3 ) ;
#48 = FACE_OUTER_BOUND ( 'NONE', #205, .T. ) ;
#49 = PERSON_AND_ORGANIZATION_ROLE ( 'design_owner' ) ;
#50 = CIRCLE ( 'NONE', #162, 2.999999999999990230 ) ;
#51 = PERSON_AND_ORGANIZATION ( #164, #142 ) ;
#52 = ADVANCED_BREP_SHAPE_REPRESENTATION ( '342072', ( #161, #80, #1 ), #105 ) ;
#53 = APPLICATION_CONTEXT ( 'configuration controlled 3d designs of mechanical parts and assemblies' ) ;
#54 = CIRCLE ( 'NONE', #100, 2.799999999999998490 ) ;
#55 = PLANE ( 'NONE',  #213 ) ;
#56 = ORIENTED_EDGE ( 'NONE', *, *, #18, .F. ) ;
#57 = FACE_OUTER_BOUND ( 'NONE', #113, .T. ) ;
#58 = CC_DESIGN_PERSON_AND_ORGANIZATION_ASSIGNMENT ( #240, #184, ( #106 ) ) ;
#59 = LOCAL_TIME ( 15, 33, 10.00000000000000000, #159 ) ;
#60 = CARTESIAN_POINT ( 'NONE',  ( 1.396592535537251764E-15, 3.200000000000000178, 0.3999999999999995226 ) ) ;
#61 = PLANE ( 'NONE',  #199 ) ;
#62 = CARTESIAN_POINT ( 'NONE',  ( 1.396592535537250384E-15, -4.898587196589401982E-17, 0.3999999999999991340 ) ) ;
#63 = AXIS2_PLACEMENT_3D ( 'NONE', #81, #77, #83 ) ;
#64 = PRODUCT ( '342072', '342072', '', ( #204 ) ) ;
#65 = APPROVAL_ROLE ( '' ) ;
#66 = PERSON_AND_ORGANIZATION_ROLE ( 'design_supplier' ) ;
#67 = ADVANCED_FACE ( 'NONE', ( #74 ), #55, .T. ) ;
#68 = ORIENTED_EDGE ( 'NONE', *, *, #110, .F. ) ;
#69 = AXIS2_PLACEMENT_3D ( 'NONE', #156, #115, #10 ) ;
#70 = APPROVAL_DATE_TIME ( #36, #174 ) ;
#71 = CARTESIAN_POINT ( 'NONE',  ( -5.986164024255739247E-31, 2.099663695726599830E-32, -1.714505518806293652E-16 ) ) ;
#72 = EDGE_LOOP ( 'NONE', ( #128 ) ) ;
#73 = PERSON_AND_ORGANIZATION ( #164, #142 ) ;
#74 = FACE_OUTER_BOUND ( 'NONE', #76, .T. ) ;
#75 = CONICAL_SURFACE ( 'NONE', #63, 2.799999999999998490, 0.7853981633974508325 ) ;
#76 = EDGE_LOOP ( 'NONE', ( #166 ) ) ;
#77 = DIRECTION ( 'NONE',  ( 3.491481338843133355E-15, -1.224646799147353207E-16, 1.000000000000000000 ) ) ;
#78 = VERTEX_POINT ( 'NONE', #154 ) ;
#79 = AXIS2_PLACEMENT_3D ( 'NONE', #99, #118, #135 ) ;
#80 = MANIFOLD_SOLID_BREP ( 'Corps-Déplacer/Copier1[2]', #148 ) ;
#81 = CARTESIAN_POINT ( 'NONE',  ( -1.197232804851147849E-30, 4.199327391453199660E-32, -3.429011037612587304E-16 ) ) ;
#82 = FACE_OUTER_BOUND ( 'NONE', #168, .T. ) ;
#83 = DIRECTION ( 'NONE',  ( -4.275831445896958607E-31, -1.000000000000000000, -1.224646799147353207E-16 ) ) ;
#84 =( NAMED_UNIT ( * ) PLANE_ANGLE_UNIT ( ) SI_UNIT ( $, .RADIAN. ) );
#85 = CC_DESIGN_PERSON_AND_ORGANIZATION_ASSIGNMENT ( #89, #220, ( #215 ) ) ;
#86 = APPROVAL_STATUS ( 'not_yet_approved' ) ;
#87 = AXIS2_PLACEMENT_3D ( 'NONE', #206, #114, #92 ) ;
#88 = CIRCLE ( 'NONE', #87, 3.200000000000000622 ) ;
#89 = PERSON_AND_ORGANIZATION ( #164, #142 ) ;
#90 = APPROVAL_STATUS ( 'not_yet_approved' ) ;
#91 = DIRECTION ( 'NONE',  ( -3.491481338843133355E-15, 1.224646799147353207E-16, -1.000000000000000000 ) ) ;
#92 = DIRECTION ( 'NONE',  ( 0.000000000000000000, 1.000000000000000000, 0.000000000000000000 ) ) ;
#93 = APPROVAL_ROLE ( '' ) ;
#94 = DIRECTION ( 'NONE',  ( 0.000000000000000000, 1.000000000000000000, 0.000000000000000000 ) ) ;
#95 = ORIENTED_EDGE ( 'NONE', *, *, #190, .F. ) ;
#96 = DIRECTION ( 'NONE',  ( -3.491481338843133355E-15, 1.224646799147353207E-16, -1.000000000000000000 ) ) ;
#97 = ADVANCED_FACE ( 'NONE', ( #41, #24 ), #182, .T. ) ;
#98 = CARTESIAN_POINT ( 'NONE',  ( 5.586370142149013368E-14, 3.199999999999998401, 16.00000000000000000 ) ) ;
#99 = CARTESIAN_POINT ( 'NONE',  ( 0.000000000000000000, 0.000000000000000000, 0.000000000000000000 ) ) ;
#100 = AXIS2_PLACEMENT_3D ( 'NONE', #101, #96, #28 ) ;
#101 = CARTESIAN_POINT ( 'NONE',  ( -1.197232804851147849E-30, 4.199327391453199660E-32, -3.429011037612587304E-16 ) ) ;
#102 = CC_DESIGN_DATE_AND_TIME_ASSIGNMENT ( #147, #191, ( #109 ) ) ;
#103 = VERTEX_POINT ( 'NONE', #196 ) ;
#104 = APPROVAL_ROLE ( '' ) ;
#105 =( GEOMETRIC_REPRESENTATION_CONTEXT ( 3 ) GLOBAL_UNCERTAINTY_ASSIGNED_CONTEXT ( ( #230 ) ) GLOBAL_UNIT_ASSIGNED_CONTEXT ( ( #125, #84, #32 ) ) REPRESENTATION_CONTEXT ( 'NONE', 'WORKASPACE' ) );
#106 = PRODUCT_DEFINITION ( 'UNKNOWN', '', #215, #222 ) ;
#107 = APPROVAL_DATE_TIME ( #108, #134 ) ;
#108 = DATE_AND_TIME ( #181, #177 ) ;
#109 = SECURITY_CLASSIFICATION ( '', '', #219 ) ;
#110 = EDGE_CURVE ( 'NONE', #175, #175, #194, .T. ) ;
#111 = APPROVAL_STATUS ( 'not_yet_approved' ) ;
#112 = EDGE_LOOP ( 'NONE', ( #56 ) ) ;
#113 = EDGE_LOOP ( 'NONE', ( #38 ) ) ;
#114 = DIRECTION ( 'NONE',  ( -3.491481338843133355E-15, 1.224646799147353207E-16, -1.000000000000000000 ) ) ;
#115 = DIRECTION ( 'NONE',  ( -3.491481338843133355E-15, 1.224646799147353207E-16, -1.000000000000000000 ) ) ;
#116 = AXIS2_PLACEMENT_3D ( 'NONE', #25, #9, #130 ) ;
#117 = FACE_OUTER_BOUND ( 'NONE', #112, .T. ) ;
#118 = DIRECTION ( 'NONE',  ( -3.491481338843133355E-15, 1.224646799147353207E-16, -1.000000000000000000 ) ) ;
#119 = ADVANCED_FACE ( 'NONE', ( #46 ), #61, .F. ) ;
#120 = CARTESIAN_POINT ( 'NONE',  ( 5.586370142149013368E-14, 2.399615652258969436E-32, 16.00000000000000000 ) ) ;
#121 = AXIS2_PLACEMENT_3D ( 'NONE', #155, #235, #195 ) ;
#122 = DIRECTION ( 'NONE',  ( 3.491481338843133355E-15, -1.224646799147353207E-16, 1.000000000000000000 ) ) ;
#123 = DIRECTION ( 'NONE',  ( 1.000000000000000000, 0.000000000000000000, 0.000000000000000000 ) ) ;
#124 = AXIS2_PLACEMENT_3D ( 'NONE', #129, #127, #193 ) ;
#125 =( LENGTH_UNIT ( ) NAMED_UNIT ( * ) SI_UNIT ( .MILLI., .METRE. ) );
#126 = AXIS2_PLACEMENT_3D ( 'NONE', #197, #27, #231 ) ;
#127 = DIRECTION ( 'NONE',  ( -3.491481338843133355E-15, 1.224646799147353207E-16, -1.000000000000000000 ) ) ;
#128 = ORIENTED_EDGE ( 'NONE', *, *, #190, .T. ) ;
#129 = CARTESIAN_POINT ( 'NONE',  ( 3.526396152231565067E-13, -1.236893267138826732E-14, 101.0000000000000000 ) ) ;
#130 = DIRECTION ( 'NONE',  ( 0.000000000000000000, 1.000000000000000000, 0.000000000000000000 ) ) ;
#131 = FACE_OUTER_BOUND ( 'NONE', #37, .T. ) ;
#132 = LOCAL_TIME ( 15, 33, 10.00000000000000000, #183 ) ;
#133 = VERTEX_POINT ( 'NONE', #45 ) ;
#134 = APPROVAL ( #90, 'UNSPECIFIED' ) ;
#135 = DIRECTION ( 'NONE',  ( 4.275831445896958607E-31, 1.000000000000000000, 1.224646799147353207E-16 ) ) ;
#136 = FACE_BOUND ( 'NONE', #21, .T. ) ;
#137 = CC_DESIGN_APPROVAL ( #174, ( #109 ) ) ;
#138 = DATE_TIME_ROLE ( 'creation_date' ) ;
#139 = CONICAL_SURFACE ( 'NONE', #121, 3.200000000000000622, 0.5235987755982987046 ) ;
#140 = EDGE_CURVE ( 'NONE', #78, #78, #54, .T. ) ;
#141 = DATE_AND_TIME ( #160, #132 ) ;
#142 = ORGANIZATION ( 'UNSPECIFIED', 'UNSPECIFIED', '' ) ;
#143 = ORIENTED_EDGE ( 'NONE', *, *, #18, .T. ) ;
#144 = ADVANCED_FACE ( 'NONE', ( #153, #48 ), #208, .T. ) ;
#145 = DIRECTION ( 'NONE',  ( 4.275831445896958607E-31, 1.000000000000000000, 1.224646799147353207E-16 ) ) ;
#146 = APPLICATION_CONTEXT ( 'configuration controlled 3d designs of mechanical parts and assemblies' ) ;
#147 = DATE_AND_TIME ( #192, #31 ) ;
#148 = CLOSED_SHELL ( 'NONE', ( #144, #234, #67, #225 ) ) ;
#149 = AXIS2_PLACEMENT_3D ( 'NONE', #43, #11, #152 ) ;
#150 = ORIENTED_EDGE ( 'NONE', *, *, #140, .F. ) ;
#151 = CARTESIAN_POINT ( 'NONE',  ( 5.707318603600118590E-14, -2.001857888184763351E-15, 16.34641016151379489 ) ) ;
#152 = DIRECTION ( 'NONE',  ( 0.000000000000000000, 1.000000000000000000, 0.000000000000000000 ) ) ;
#153 = FACE_OUTER_BOUND ( 'NONE', #39, .T. ) ;
#154 = CARTESIAN_POINT ( 'NONE',  ( 0.000000000000000000, 2.799999999999998490, 0.000000000000000000 ) ) ;
#155 = CARTESIAN_POINT ( 'NONE',  ( 5.586370142149013368E-14, -1.959434878635765131E-15, 16.00000000000000000 ) ) ;
#156 = CARTESIAN_POINT ( 'NONE',  ( 3.526396152231565067E-13, 1.799711739194212982E-32, 101.0000000000000000 ) ) ;
#157 = CIRCLE ( 'NONE', #47, 2.400000000000003464 ) ;
#158 = APPROVAL_PERSON_ORGANIZATION ( #242, #134, #104 ) ;
#159 = COORDINATED_UNIVERSAL_TIME_OFFSET ( 1, 0, .AHEAD. ) ;
#160 = CALENDAR_DATE ( 2023, 28, 9 ) ;
#161 = MANIFOLD_SOLID_BREP ( 'Corps-Déplacer/Copier1[1]', #227 ) ;
#162 = AXIS2_PLACEMENT_3D ( 'NONE', #151, #223, #94 ) ;
#163 = CC_DESIGN_APPROVAL ( #243, ( #215 ) ) ;
#164 = PERSON ( 'UNSPECIFIED', 'UNSPECIFIED', 'UNSPECIFIED', ('UNSPECIFIED'), ('UNSPECIFIED'), ('UNSPECIFIED') ) ;
#165 = PERSON_AND_ORGANIZATION ( #164, #142 ) ;
#166 = ORIENTED_EDGE ( 'NONE', *, *, #140, .T. ) ;
#167 = LOCAL_TIME ( 15, 33, 10.00000000000000000, #221 ) ;
#168 = EDGE_LOOP ( 'NONE', ( #224 ) ) ;
#169 = ORIENTED_EDGE ( 'NONE', *, *, #44, .T. ) ;
#170 = DIRECTION ( 'NONE',  ( -3.491481338843133355E-15, 1.224646799147353207E-16, -1.000000000000000000 ) ) ;
#171 = ADVANCED_FACE ( 'NONE', ( #178 ), #212, .F. ) ;
#172 = CARTESIAN_POINT ( 'NONE',  ( 3.526396152231565067E-13, -1.236893267138826732E-14, 101.0000000000000000 ) ) ;
#173 = DIRECTION ( 'NONE',  ( 3.491481338843133355E-15, -1.224646799147353207E-16, 1.000000000000000000 ) ) ;
#174 = APPROVAL ( #111, 'UNSPECIFIED' ) ;
#175 = VERTEX_POINT ( 'NONE', #8 ) ;
#176 = FACE_OUTER_BOUND ( 'NONE', #72, .T. ) ;
#177 = LOCAL_TIME ( 15, 33, 10.00000000000000000, #33 ) ;
#178 = FACE_OUTER_BOUND ( 'NONE', #226, .T. ) ;
#179 = VERTEX_POINT ( 'NONE', #236 ) ;
#180 = ADVANCED_FACE ( 'NONE', ( #42, #82 ), #139, .T. ) ;
#181 = CALENDAR_DATE ( 2023, 28, 9 ) ;
#182 = CONICAL_SURFACE ( 'NONE', #124, 2.400000000000003464, 0.7853981633974335130 ) ;
#183 = COORDINATED_UNIVERSAL_TIME_OFFSET ( 1, 0, .AHEAD. ) ;
#184 = PERSON_AND_ORGANIZATION_ROLE ( 'creator' ) ;
#185 = EDGE_CURVE ( 'NONE', #233, #233, #16, .T. ) ;
#186 = APPROVAL_DATE_TIME ( #141, #243 ) ;
#187 = APPROVAL_PERSON_ORGANIZATION ( #51, #243, #65 ) ;
#188 = CALENDAR_DATE ( 2023, 28, 9 ) ;
#189 = ORIENTED_EDGE ( 'NONE', *, *, #185, .F. ) ;
#190 = EDGE_CURVE ( 'NONE', #133, #133, #237, .T. ) ;
#191 = DATE_TIME_ROLE ( 'classification_date' ) ;
#192 = CALENDAR_DATE ( 2023, 28, 9 ) ;
#193 = DIRECTION ( 'NONE',  ( 0.000000000000000000, 1.000000000000000000, 0.000000000000000000 ) ) ;
#194 = CIRCLE ( 'NONE', #116, 3.200000000000000622 ) ;
#195 = DIRECTION ( 'NONE',  ( 0.000000000000000000, 1.000000000000000000, 0.000000000000000000 ) ) ;
#196 = CARTESIAN_POINT ( 'NONE',  ( 5.707318603600118590E-14, 2.999999999999988010, 16.34641016151379489 ) ) ;
#197 = CARTESIAN_POINT ( 'NONE',  ( 0.000000000000000000, 0.000000000000000000, 0.000000000000000000 ) ) ;
#198 = DIRECTION ( 'NONE',  ( -4.275831445896958607E-31, -1.000000000000000000, -1.224646799147353207E-16 ) ) ;
#199 = AXIS2_PLACEMENT_3D ( 'NONE', #120, #173, #198 ) ;
#200 = DIRECTION ( 'NONE',  ( 4.212971753347078429E-31, 1.000000000000000000, 1.185846126156020475E-16 ) ) ;
#201 = DIRECTION ( 'NONE',  ( 0.000000000000000000, 0.000000000000000000, 1.000000000000000000 ) ) ;
#202 = DATE_AND_TIME ( #238, #59 ) ;
#203 = PRODUCT_RELATED_PRODUCT_CATEGORY ( 'detail', '', ( #64 ) ) ;
#204 = MECHANICAL_CONTEXT ( 'NONE', #53, 'mechanical' ) ;
#205 = EDGE_LOOP ( 'NONE', ( #189 ) ) ;
#206 = CARTESIAN_POINT ( 'NONE',  ( 5.586370142149013368E-14, -1.959434878635765131E-15, 16.00000000000000000 ) ) ;
#207 = ORIENTED_EDGE ( 'NONE', *, *, #30, .T. ) ;
#208 = CYLINDRICAL_SURFACE ( 'NONE', #79, 3.200000000000000622 ) ;
#209 = PLANE ( 'NONE',  #232 ) ;
#210 = CC_DESIGN_PERSON_AND_ORGANIZATION_ASSIGNMENT ( #73, #22, ( #109 ) ) ;
#211 = DIRECTION ( 'NONE',  ( -3.491481338843133355E-15, 1.224646799147353207E-16, -1.000000000000000000 ) ) ;
#212 = PLANE ( 'NONE',  #69 ) ;
#213 = AXIS2_PLACEMENT_3D ( 'NONE', #71, #91, #145 ) ;
#214 = CARTESIAN_POINT ( 'NONE',  ( 5.586370142149013368E-14, 2.399615652258969436E-32, 16.00000000000000000 ) ) ;
#215 = PRODUCT_DEFINITION_FORMATION_WITH_SPECIFIED_SOURCE ( 'ANY', '', #64, .NOT_KNOWN. ) ;
#216 = PRODUCT_DEFINITION_SHAPE ( 'NONE', 'NONE',  #106 ) ;
#217 = CARTESIAN_POINT ( 'NONE',  ( 0.000000000000000000, 0.000000000000000000, 0.000000000000000000 ) ) ;
#218 = ADVANCED_FACE ( 'NONE', ( #117, #176 ), #7, .T. ) ;
#219 = SECURITY_CLASSIFICATION_LEVEL ( 'unclassified' ) ;
#220 = PERSON_AND_ORGANIZATION_ROLE ( 'creator' ) ;
#221 = COORDINATED_UNIVERSAL_TIME_OFFSET ( 1, 0, .AHEAD. ) ;
#222 = DESIGN_CONTEXT ( 'detailed design', #146, 'design' ) ;
#223 = DIRECTION ( 'NONE',  ( -3.491481338843133355E-15, 1.224646799147353207E-16, -1.000000000000000000 ) ) ;
#224 = ORIENTED_EDGE ( 'NONE', *, *, #44, .F. ) ;
#225 = ADVANCED_FACE ( 'NONE', ( #57, #136 ), #75, .T. ) ;
#226 = EDGE_LOOP ( 'NONE', ( #19 ) ) ;
#227 = CLOSED_SHELL ( 'NONE', ( #119, #180, #218, #97, #171 ) ) ;
#228 = COORDINATED_UNIVERSAL_TIME_OFFSET ( 1, 0, .AHEAD. ) ;
#229 = ORIENTED_EDGE ( 'NONE', *, *, #110, .T. ) ;
#230 = UNCERTAINTY_MEASURE_WITH_UNIT (LENGTH_MEASURE( 1.000000000000000082E-05 ), #125, 'distance_accuracy_value', 'NONE');
#231 = DIRECTION ( 'NONE',  ( 4.275831445896958607E-31, 1.000000000000000000, 1.224646799147353207E-16 ) ) ;
#232 = AXIS2_PLACEMENT_3D ( 'NONE', #214, #122, #29 ) ;
#233 = VERTEX_POINT ( 'NONE', #60 ) ;
#234 = ADVANCED_FACE ( 'NONE', ( #131 ), #209, .T. ) ;
#235 = DIRECTION ( 'NONE',  ( -3.491481338843133355E-15, 1.224646799147353207E-16, -1.000000000000000000 ) ) ;
#236 = CARTESIAN_POINT ( 'NONE',  ( 3.526396152231565067E-13, 2.399999999999990585, 101.0000000000000000 ) ) ;
#237 = CIRCLE ( 'NONE', #149, 3.000000000000002665 ) ;
#238 = CALENDAR_DATE ( 2023, 28, 9 ) ;
#239 = PERSON_AND_ORGANIZATION ( #164, #142 ) ;
#240 = PERSON_AND_ORGANIZATION ( #164, #142 ) ;
#241 = AXIS2_PLACEMENT_3D ( 'NONE', #62, #211, #200 ) ;
#242 = PERSON_AND_ORGANIZATION ( #164, #142 ) ;
#243 = APPROVAL ( #86, 'UNSPECIFIED' ) ;
ENDSEC;
END-ISO-10303-21;
