ISO-10303-21;
HEADER;
FILE_DESCRIPTION (( 'STEP AP203' ),
    '1' );
FILE_NAME ('342062.step',
    '2023-09-28T13:33:09',
    ( '' ),
    ( '' ),
    'SwSTEP 2.0',
    'SolidWorks 2022',
    '' );
FILE_SCHEMA (( 'CONFIG_CONTROL_DESIGN' ));
ENDSEC;

DATA;
#1 = EDGE_LOOP ( 'NONE', ( #4 ) ) ;
#2 = AXIS2_PLACEMENT_3D ( 'NONE', #119, #98, #178 ) ;
#3 = DIRECTION ( 'NONE',  ( 4.275831445896959482E-31, 1.000000000000000000, 1.224646799147353207E-16 ) ) ;
#4 = ORIENTED_EDGE ( 'NONE', *, *, #177, .F. ) ;
#5 = DIRECTION ( 'NONE',  ( 4.275831445896958607E-31, 1.000000000000000000, 1.224646799147353207E-16 ) ) ;
#6 = AXIS2_PLACEMENT_3D ( 'NONE', #18, #128, #206 ) ;
#7 = FACE_OUTER_BOUND ( 'NONE', #60, .T. ) ;
#8 = APPROVAL ( #34, 'UNSPECIFIED' ) ;
#9 = DIRECTION ( 'NONE',  ( 0.000000000000000000, 1.000000000000000000, 0.000000000000000000 ) ) ;
#10 = FACE_OUTER_BOUND ( 'NONE', #57, .T. ) ;
#11 = FACE_OUTER_BOUND ( 'NONE', #94, .T. ) ;
#12 = DIRECTION ( 'NONE',  ( 3.491481338843133355E-15, -1.224646799147353207E-16, 1.000000000000000000 ) ) ;
#13 = APPROVAL_ROLE ( '' ) ;
#14 = EDGE_CURVE ( 'NONE', #159, #159, #162, .T. ) ;
#15 = PERSON_AND_ORGANIZATION ( #234, #137 ) ;
#16 = AXIS2_PLACEMENT_3D ( 'NONE', #74, #95, #5 ) ;
#17 = EDGE_CURVE ( 'NONE', #126, #126, #90, .T. ) ;
#18 = CARTESIAN_POINT ( 'NONE',  ( 0.000000000000000000, 0.000000000000000000, 0.000000000000000000 ) ) ;
#19 = ORIENTED_EDGE ( 'NONE', *, *, #150, .F. ) ;
#20 = PRODUCT_RELATED_PRODUCT_CATEGORY ( 'detail', '', ( #102 ) ) ;
#21 = CYLINDRICAL_SURFACE ( 'NONE', #16, 2.999999999999996447 ) ;
#22 = CC_DESIGN_APPROVAL ( #88, ( #207 ) ) ;
#23 = FACE_OUTER_BOUND ( 'NONE', #42, .T. ) ;
#24 = EDGE_LOOP ( 'NONE', ( #212 ) ) ;
#25 = CC_DESIGN_PERSON_AND_ORGANIZATION_ASSIGNMENT ( #204, #165, ( #207 ) ) ;
#26 = CC_DESIGN_APPROVAL ( #8, ( #144 ) ) ;
#27 = CARTESIAN_POINT ( 'NONE',  ( 3.505447264198505131E-13, -1.229545386343942402E-14, 100.3999999999999915 ) ) ;
#28 = CC_DESIGN_APPROVAL ( #80, ( #43 ) ) ;
#29 = PLANE ( 'NONE',  #225 ) ;
#30 =( NAMED_UNIT ( * ) SI_UNIT ( $, .STERADIAN. ) SOLID_ANGLE_UNIT ( ) );
#31 = APPROVAL_ROLE ( '' ) ;
#32 = CIRCLE ( 'NONE', #81, 3.150000000000000355 ) ;
#33 = PERSON_AND_ORGANIZATION_ROLE ( 'creator' ) ;
#34 = APPROVAL_STATUS ( 'not_yet_approved' ) ;
#35 = MECHANICAL_CONTEXT ( 'NONE', #56, 'mechanical' ) ;
#36 = CIRCLE ( 'NONE', #40, 3.150000000000000355 ) ;
#37 = EDGE_LOOP ( 'NONE', ( #97 ) ) ;
#38 = DESIGN_CONTEXT ( 'detailed design', #104, 'design' ) ;
#39 = FACE_BOUND ( 'NONE', #172, .T. ) ;
#40 = AXIS2_PLACEMENT_3D ( 'NONE', #101, #79, #120 ) ;
#41 = ORIENTED_EDGE ( 'NONE', *, *, #166, .T. ) ;
#42 = EDGE_LOOP ( 'NONE', ( #195 ) ) ;
#43 = PRODUCT_DEFINITION ( 'UNKNOWN', '', #207, #38 ) ;
#44 = DIRECTION ( 'NONE',  ( 4.275831445896958607E-31, 1.000000000000000000, 1.224646799147353207E-16 ) ) ;
#45 = LOCAL_TIME ( 15, 33, 9.000000000000000000, #147 ) ;
#46 = DIRECTION ( 'NONE',  ( 3.491481338843133355E-15, -1.224646799147353207E-16, 1.000000000000000000 ) ) ;
#47 = VERTEX_POINT ( 'NONE', #201 ) ;
#48 = CARTESIAN_POINT ( 'NONE',  ( 1.396592535537252553E-15, 3.149999999999999911, 0.3999999999999997446 ) ) ;
#49 = AXIS2_PLACEMENT_3D ( 'NONE', #200, #46, #123 ) ;
#50 = APPROVAL_DATE_TIME ( #110, #8 ) ;
#51 = PERSON_AND_ORGANIZATION ( #234, #137 ) ;
#52 = CLOSED_SHELL ( 'NONE', ( #148, #122, #68, #229, #109 ) ) ;
#53 = DATE_AND_TIME ( #163, #108 ) ;
#54 = PERSON_AND_ORGANIZATION_ROLE ( 'design_owner' ) ;
#55 = CALENDAR_DATE ( 2023, 28, 9 ) ;
#56 = APPLICATION_CONTEXT ( 'configuration controlled 3d designs of mechanical parts and assemblies' ) ;
#57 = EDGE_LOOP ( 'NONE', ( #149 ) ) ;
#58 = CARTESIAN_POINT ( 'NONE',  ( 3.526396152231565067E-13, 1.799711739194212982E-32, 101.0000000000000000 ) ) ;
#59 = CARTESIAN_POINT ( 'NONE',  ( 5.677081488237342916E-14, -1.991252135797514486E-15, 16.25980762113534794 ) ) ;
#60 = EDGE_LOOP ( 'NONE', ( #41 ) ) ;
#61 = CARTESIAN_POINT ( 'NONE',  ( 5.586370142149013368E-14, 3.149999999999998135, 16.00000000000000000 ) ) ;
#62 = CC_DESIGN_DATE_AND_TIME_ASSIGNMENT ( #53, #93, ( #144 ) ) ;
#63 = FACE_BOUND ( 'NONE', #227, .T. ) ;
#64 = VERTEX_POINT ( 'NONE', #124 ) ;
#65 = PRODUCT_DEFINITION_SHAPE ( 'NONE', 'NONE',  #43 ) ;
#66 = DIRECTION ( 'NONE',  ( -3.491481338843133355E-15, 1.224646799147353207E-16, -1.000000000000000000 ) ) ;
#67 = LOCAL_TIME ( 15, 33, 9.000000000000000000, #112 ) ;
#68 = ADVANCED_FACE ( 'NONE', ( #155, #7 ), #21, .T. ) ;
#69 = DATE_AND_TIME ( #129, #67 ) ;
#70 = APPROVAL_DATE_TIME ( #69, #88 ) ;
#71 = ADVANCED_FACE ( 'NONE', ( #23, #174 ), #228, .T. ) ;
#72 = CARTESIAN_POINT ( 'NONE',  ( 1.396592535537251173E-15, -4.898587196589405063E-17, 0.3999999999999993561 ) ) ;
#73 = PLANE ( 'NONE',  #202 ) ;
#74 = CARTESIAN_POINT ( 'NONE',  ( 0.000000000000000000, 0.000000000000000000, 0.000000000000000000 ) ) ;
#75 = FACE_OUTER_BOUND ( 'NONE', #211, .T. ) ;
#76 = CONICAL_SURFACE ( 'NONE', #219, 3.150000000000000355, 0.5235987755983001479 ) ;
#77 = EDGE_LOOP ( 'NONE', ( #118 ) ) ;
#78 =( LENGTH_UNIT ( ) NAMED_UNIT ( * ) SI_UNIT ( .MILLI., .METRE. ) );
#79 = DIRECTION ( 'NONE',  ( -3.491481338843133355E-15, 1.224646799147353207E-16, -1.000000000000000000 ) ) ;
#80 = APPROVAL ( #221, 'UNSPECIFIED' ) ;
#81 = AXIS2_PLACEMENT_3D ( 'NONE', #214, #105, #106 ) ;
#82 = FACE_OUTER_BOUND ( 'NONE', #175, .T. ) ;
#83 = CARTESIAN_POINT ( 'NONE',  ( 3.526396152231565067E-13, -1.236893267138826732E-14, 101.0000000000000000 ) ) ;
#84 = CC_DESIGN_PERSON_AND_ORGANIZATION_ASSIGNMENT ( #87, #54, ( #102 ) ) ;
#85 = FACE_OUTER_BOUND ( 'NONE', #1, .T. ) ;
#86 = SECURITY_CLASSIFICATION_LEVEL ( 'unclassified' ) ;
#87 = PERSON_AND_ORGANIZATION ( #234, #137 ) ;
#88 = APPROVAL ( #89, 'UNSPECIFIED' ) ;
#89 = APPROVAL_STATUS ( 'not_yet_approved' ) ;
#90 = CIRCLE ( 'NONE', #153, 2.999999999999990230 ) ;
#91 = AXIS2_PLACEMENT_3D ( 'NONE', #72, #135, #193 ) ;
#92 = AXIS2_PLACEMENT_3D ( 'NONE', #83, #180, #9 ) ;
#93 = DATE_TIME_ROLE ( 'classification_date' ) ;
#94 = EDGE_LOOP ( 'NONE', ( #197 ) ) ;
#95 = DIRECTION ( 'NONE',  ( -3.491481338843133355E-15, 1.224646799147353207E-16, -1.000000000000000000 ) ) ;
#96 = FACE_OUTER_BOUND ( 'NONE', #37, .T. ) ;
#97 = ORIENTED_EDGE ( 'NONE', *, *, #224, .F. ) ;
#98 = DIRECTION ( 'NONE',  ( -3.491481338843133355E-15, 1.224646799147353207E-16, -1.000000000000000000 ) ) ;
#99 = CC_DESIGN_SECURITY_CLASSIFICATION ( #144, ( #207 ) ) ;
#100 = CARTESIAN_POINT ( 'NONE',  ( -5.879268238108314800E-31, 2.062169701160053116E-32, -1.683889348827609766E-16 ) ) ;
#101 = CARTESIAN_POINT ( 'NONE',  ( 5.586370142149013368E-14, -1.959434878635765131E-15, 16.00000000000000000 ) ) ;
#102 = PRODUCT ( '342062', '342062', '', ( #35 ) ) ;
#103 = DIRECTION ( 'NONE',  ( -4.275831445896958607E-31, -1.000000000000000000, -1.224646799147353207E-16 ) ) ;
#104 = APPLICATION_CONTEXT ( 'configuration controlled 3d designs of mechanical parts and assemblies' ) ;
#105 = DIRECTION ( 'NONE',  ( -3.491481338843133355E-15, 1.224646799147353207E-16, -1.000000000000000000 ) ) ;
#106 = DIRECTION ( 'NONE',  ( 0.000000000000000000, 1.000000000000000000, 0.000000000000000000 ) ) ;
#107 = DATE_AND_TIME ( #133, #231 ) ;
#108 = LOCAL_TIME ( 15, 33, 9.000000000000000000, #205 ) ;
#109 = ADVANCED_FACE ( 'NONE', ( #75 ), #73, .F. ) ;
#110 = DATE_AND_TIME ( #55, #173 ) ;
#111 = PERSON_AND_ORGANIZATION_ROLE ( 'classification_officer' ) ;
#112 = COORDINATED_UNIVERSAL_TIME_OFFSET ( 1, 0, .AHEAD. ) ;
#113 = AXIS2_PLACEMENT_3D ( 'NONE', #233, #237, #44 ) ;
#114 = EDGE_LOOP ( 'NONE', ( #138 ) ) ;
#115 = ORIENTED_EDGE ( 'NONE', *, *, #134, .F. ) ;
#116 = DIRECTION ( 'NONE',  ( -3.491481338843133355E-15, 1.224646799147353207E-16, -1.000000000000000000 ) ) ;
#117 = APPROVAL_PERSON_ORGANIZATION ( #146, #8, #170 ) ;
#118 = ORIENTED_EDGE ( 'NONE', *, *, #166, .F. ) ;
#119 = CARTESIAN_POINT ( 'NONE',  ( 3.526396152231565067E-13, -1.236893267138826732E-14, 101.0000000000000000 ) ) ;
#120 = DIRECTION ( 'NONE',  ( 0.000000000000000000, 1.000000000000000000, 0.000000000000000000 ) ) ;
#121 = AXIS2_PLACEMENT_3D ( 'NONE', #184, #235, #238 ) ;
#122 = ADVANCED_FACE ( 'NONE', ( #39, #96 ), #76, .T. ) ;
#123 = DIRECTION ( 'NONE',  ( -4.275831445896958607E-31, -1.000000000000000000, -1.224646799147353207E-16 ) ) ;
#124 = CARTESIAN_POINT ( 'NONE',  ( 5.586370142149013368E-14, 3.149999999999998135, 16.00000000000000000 ) ) ;
#125 = CC_DESIGN_PERSON_AND_ORGANIZATION_ASSIGNMENT ( #186, #33, ( #207 ) ) ;
#126 = VERTEX_POINT ( 'NONE', #236 ) ;
#127 = AXIS2_PLACEMENT_3D ( 'NONE', #27, #203, #157 ) ;
#128 = DIRECTION ( 'NONE',  ( 0.000000000000000000, 0.000000000000000000, 1.000000000000000000 ) ) ;
#129 = CALENDAR_DATE ( 2023, 28, 9 ) ;
#130 = CLOSED_SHELL ( 'NONE', ( #71, #141, #218, #192 ) ) ;
#131 = CIRCLE ( 'NONE', #2, 2.400000000000003464 ) ;
#132 = PERSON_AND_ORGANIZATION_ROLE ( 'creator' ) ;
#133 = CALENDAR_DATE ( 2023, 28, 9 ) ;
#134 = EDGE_CURVE ( 'NONE', #156, #156, #131, .T. ) ;
#135 = DIRECTION ( 'NONE',  ( -3.491481338843133355E-15, 1.224646799147353207E-16, -1.000000000000000000 ) ) ;
#136 = DIRECTION ( 'NONE',  ( -3.491481338843133355E-15, 1.224646799147353207E-16, -1.000000000000000000 ) ) ;
#137 = ORGANIZATION ( 'UNSPECIFIED', 'UNSPECIFIED', '' ) ;
#138 = ORIENTED_EDGE ( 'NONE', *, *, #17, .F. ) ;
#139 = CONICAL_SURFACE ( 'NONE', #182, 2.749999999999998668, 0.7853981633974504994 ) ;
#140 = FACE_BOUND ( 'NONE', #191, .T. ) ;
#141 = ADVANCED_FACE ( 'NONE', ( #85 ), #181, .T. ) ;
#142 = DIRECTION ( 'NONE',  ( 4.275831445896958607E-31, 1.000000000000000000, 1.224646799147353207E-16 ) ) ;
#143 = CARTESIAN_POINT ( 'NONE',  ( 3.505447264198505131E-13, 2.999999999999990674, 100.3999999999999915 ) ) ;
#144 = SECURITY_CLASSIFICATION ( '', '', #86 ) ;
#145 = COORDINATED_UNIVERSAL_TIME_OFFSET ( 1, 0, .AHEAD. ) ;
#146 = PERSON_AND_ORGANIZATION ( #234, #137 ) ;
#147 = COORDINATED_UNIVERSAL_TIME_OFFSET ( 1, 0, .AHEAD. ) ;
#148 = ADVANCED_FACE ( 'NONE', ( #11 ), #217, .F. ) ;
#149 = ORIENTED_EDGE ( 'NONE', *, *, #150, .T. ) ;
#150 = EDGE_CURVE ( 'NONE', #47, #47, #158, .T. ) ;
#151 = DIRECTION ( 'NONE',  ( 0.000000000000000000, 1.000000000000000000, 0.000000000000000000 ) ) ;
#152 = CARTESIAN_POINT ( 'NONE',  ( 0.000000000000000000, 0.000000000000000000, 0.000000000000000000 ) ) ;
#153 = AXIS2_PLACEMENT_3D ( 'NONE', #59, #210, #151 ) ;
#154 = DIRECTION ( 'NONE',  ( 4.275831445896958607E-31, 1.000000000000000000, 1.224646799147353207E-16 ) ) ;
#155 = FACE_OUTER_BOUND ( 'NONE', #114, .T. ) ;
#156 = VERTEX_POINT ( 'NONE', #160 ) ;
#157 = DIRECTION ( 'NONE',  ( 0.000000000000000000, 1.000000000000000000, 0.000000000000000000 ) ) ;
#158 = CIRCLE ( 'NONE', #113, 2.749999999999998668 ) ;
#159 = VERTEX_POINT ( 'NONE', #48 ) ;
#160 = CARTESIAN_POINT ( 'NONE',  ( 3.526396152231565067E-13, 2.399999999999990585, 101.0000000000000000 ) ) ;
#161 = VERTEX_POINT ( 'NONE', #61 ) ;
#162 = CIRCLE ( 'NONE', #91, 3.149999999999999911 ) ;
#163 = CALENDAR_DATE ( 2023, 28, 9 ) ;
#164 = APPLICATION_PROTOCOL_DEFINITION ( 'international standard', 'config_control_design', 1994, #104 ) ;
#165 = PERSON_AND_ORGANIZATION_ROLE ( 'design_supplier' ) ;
#166 = EDGE_CURVE ( 'NONE', #179, #179, #194, .T. ) ;
#167 = APPROVAL_PERSON_ORGANIZATION ( #15, #88, #13 ) ;
#168 = APPROVAL_DATE_TIME ( #107, #80 ) ;
#169 = MANIFOLD_SOLID_BREP ( 'Corps-Déplacer/Copier1[1]', #52 ) ;
#170 = APPROVAL_ROLE ( '' ) ;
#171 = MANIFOLD_SOLID_BREP ( 'Corps-Déplacer/Copier1[2]', #130 ) ;
#172 = EDGE_LOOP ( 'NONE', ( #208 ) ) ;
#173 = LOCAL_TIME ( 15, 33, 9.000000000000000000, #240 ) ;
#174 = FACE_OUTER_BOUND ( 'NONE', #24, .T. ) ;
#175 = EDGE_LOOP ( 'NONE', ( #176 ) ) ;
#176 = ORIENTED_EDGE ( 'NONE', *, *, #14, .T. ) ;
#177 = EDGE_CURVE ( 'NONE', #161, #161, #36, .T. ) ;
#178 = DIRECTION ( 'NONE',  ( 0.000000000000000000, 1.000000000000000000, 0.000000000000000000 ) ) ;
#179 = VERTEX_POINT ( 'NONE', #143 ) ;
#180 = DIRECTION ( 'NONE',  ( -3.491481338843133355E-15, 1.224646799147353207E-16, -1.000000000000000000 ) ) ;
#181 = PLANE ( 'NONE',  #49 ) ;
#182 = AXIS2_PLACEMENT_3D ( 'NONE', #198, #12, #103 ) ;
#183 =( NAMED_UNIT ( * ) PLANE_ANGLE_UNIT ( ) SI_UNIT ( $, .RADIAN. ) );
#184 = CARTESIAN_POINT ( 'NONE',  ( 5.586370142149013368E-14, 2.362121657692422722E-32, 16.00000000000000000 ) ) ;
#185 = CC_DESIGN_DATE_AND_TIME_ASSIGNMENT ( #242, #241, ( #43 ) ) ;
#186 = PERSON_AND_ORGANIZATION ( #234, #137 ) ;
#187 = CONICAL_SURFACE ( 'NONE', #92, 2.400000000000003464, 0.7853981633974335130 ) ;
#188 = PERSON_AND_ORGANIZATION ( #234, #137 ) ;
#189 = SHAPE_DEFINITION_REPRESENTATION ( #65, #216 ) ;
#190 = CALENDAR_DATE ( 2023, 28, 9 ) ;
#191 = EDGE_LOOP ( 'NONE', ( #196 ) ) ;
#192 = ADVANCED_FACE ( 'NONE', ( #82, #63 ), #139, .T. ) ;
#193 = DIRECTION ( 'NONE',  ( 4.279844320860524021E-31, 1.000000000000000000, 1.204669080539449344E-16 ) ) ;
#194 = CIRCLE ( 'NONE', #127, 3.000000000000002665 ) ;
#195 = ORIENTED_EDGE ( 'NONE', *, *, #177, .T. ) ;
#196 = ORIENTED_EDGE ( 'NONE', *, *, #134, .T. ) ;
#197 = ORIENTED_EDGE ( 'NONE', *, *, #224, .T. ) ;
#198 = CARTESIAN_POINT ( 'NONE',  ( -1.175853647621662960E-30, 4.124339402320106232E-32, -3.367778697655219532E-16 ) ) ;
#199 = FACE_OUTER_BOUND ( 'NONE', #77, .T. ) ;
#200 = CARTESIAN_POINT ( 'NONE',  ( 5.586370142149013368E-14, 2.362121657692422722E-32, 16.00000000000000000 ) ) ;
#201 = CARTESIAN_POINT ( 'NONE',  ( 0.000000000000000000, 2.749999999999998668, 0.000000000000000000 ) ) ;
#202 = AXIS2_PLACEMENT_3D ( 'NONE', #58, #136, #154 ) ;
#203 = DIRECTION ( 'NONE',  ( -3.491481338843133355E-15, 1.224646799147353207E-16, -1.000000000000000000 ) ) ;
#204 = PERSON_AND_ORGANIZATION ( #234, #137 ) ;
#205 = COORDINATED_UNIVERSAL_TIME_OFFSET ( 1, 0, .AHEAD. ) ;
#206 = DIRECTION ( 'NONE',  ( 1.000000000000000000, 0.000000000000000000, 0.000000000000000000 ) ) ;
#207 = PRODUCT_DEFINITION_FORMATION_WITH_SPECIFIED_SOURCE ( 'ANY', '', #102, .NOT_KNOWN. ) ;
#208 = ORIENTED_EDGE ( 'NONE', *, *, #17, .T. ) ;
#209 = CC_DESIGN_PERSON_AND_ORGANIZATION_ASSIGNMENT ( #220, #111, ( #144 ) ) ;
#210 = DIRECTION ( 'NONE',  ( -3.491481338843133355E-15, 1.224646799147353207E-16, -1.000000000000000000 ) ) ;
#211 = EDGE_LOOP ( 'NONE', ( #115 ) ) ;
#212 = ORIENTED_EDGE ( 'NONE', *, *, #14, .F. ) ;
#213 = DIRECTION ( 'NONE',  ( 0.000000000000000000, 1.000000000000000000, 0.000000000000000000 ) ) ;
#214 = CARTESIAN_POINT ( 'NONE',  ( 5.586370142149013368E-14, -1.959434878635765131E-15, 16.00000000000000000 ) ) ;
#215 = CC_DESIGN_PERSON_AND_ORGANIZATION_ASSIGNMENT ( #188, #132, ( #43 ) ) ;
#216 = ADVANCED_BREP_SHAPE_REPRESENTATION ( '342062', ( #169, #171, #6 ), #243 ) ;
#217 = PLANE ( 'NONE',  #121 ) ;
#218 = ADVANCED_FACE ( 'NONE', ( #10 ), #29, .T. ) ;
#219 = AXIS2_PLACEMENT_3D ( 'NONE', #230, #232, #213 ) ;
#220 = PERSON_AND_ORGANIZATION ( #234, #137 ) ;
#221 = APPROVAL_STATUS ( 'not_yet_approved' ) ;
#222 = APPROVAL_PERSON_ORGANIZATION ( #51, #80, #31 ) ;
#223 = APPLICATION_PROTOCOL_DEFINITION ( 'international standard', 'config_control_design', 1994, #56 ) ;
#224 = EDGE_CURVE ( 'NONE', #64, #64, #32, .T. ) ;
#225 = AXIS2_PLACEMENT_3D ( 'NONE', #100, #66, #142 ) ;
#226 = UNCERTAINTY_MEASURE_WITH_UNIT (LENGTH_MEASURE( 1.000000000000000082E-05 ), #78, 'distance_accuracy_value', 'NONE');
#227 = EDGE_LOOP ( 'NONE', ( #19 ) ) ;
#228 = CYLINDRICAL_SURFACE ( 'NONE', #239, 3.149999999999999911 ) ;
#229 = ADVANCED_FACE ( 'NONE', ( #199, #140 ), #187, .T. ) ;
#230 = CARTESIAN_POINT ( 'NONE',  ( 5.586370142149013368E-14, -1.959434878635765131E-15, 16.00000000000000000 ) ) ;
#231 = LOCAL_TIME ( 15, 33, 9.000000000000000000, #145 ) ;
#232 = DIRECTION ( 'NONE',  ( -3.491481338843133355E-15, 1.224646799147353207E-16, -1.000000000000000000 ) ) ;
#233 = CARTESIAN_POINT ( 'NONE',  ( -1.175853647621662960E-30, 4.124339402320106232E-32, -3.367778697655219532E-16 ) ) ;
#234 = PERSON ( 'UNSPECIFIED', 'UNSPECIFIED', 'UNSPECIFIED', ('UNSPECIFIED'), ('UNSPECIFIED'), ('UNSPECIFIED') ) ;
#235 = DIRECTION ( 'NONE',  ( 3.491481338843133355E-15, -1.224646799147353207E-16, 1.000000000000000000 ) ) ;
#236 = CARTESIAN_POINT ( 'NONE',  ( 5.677081488237342916E-14, 2.999999999999988010, 16.25980762113534794 ) ) ;
#237 = DIRECTION ( 'NONE',  ( -3.491481338843133355E-15, 1.224646799147353207E-16, -1.000000000000000000 ) ) ;
#238 = DIRECTION ( 'NONE',  ( -4.275831445896958607E-31, -1.000000000000000000, -1.224646799147353207E-16 ) ) ;
#239 = AXIS2_PLACEMENT_3D ( 'NONE', #152, #116, #3 ) ;
#240 = COORDINATED_UNIVERSAL_TIME_OFFSET ( 1, 0, .AHEAD. ) ;
#241 = DATE_TIME_ROLE ( 'creation_date' ) ;
#242 = DATE_AND_TIME ( #190, #45 ) ;
#243 =( GEOMETRIC_REPRESENTATION_CONTEXT ( 3 ) GLOBAL_UNCERTAINTY_ASSIGNED_CONTEXT ( ( #226 ) ) GLOBAL_UNIT_ASSIGNED_CONTEXT ( ( #78, #183, #30 ) ) REPRESENTATION_CONTEXT ( 'NONE', 'WORKASPACE' ) );
ENDSEC;
END-ISO-10303-21;
