ISO-10303-21;
HEADER;
FILE_DESCRIPTION (( 'STEP AP203' ),
    '1' );
FILE_NAME ('342052.step',
    '2023-09-28T13:33:09',
    ( '' ),
    ( '' ),
    'SwSTEP 2.0',
    'SolidWorks 2022',
    '' );
FILE_SCHEMA (( 'CONFIG_CONTROL_DESIGN' ));
ENDSEC;

DATA;
#1 = LOCAL_TIME ( 15, 33, 9.000000000000000000, #59 ) ;
#2 = ORIENTED_EDGE ( 'NONE', *, *, #226, .F. ) ;
#3 = ORIENTED_EDGE ( 'NONE', *, *, #65, .F. ) ;
#4 = DIRECTION ( 'NONE',  ( -3.491481338843133355E-15, 1.224646799147353207E-16, -1.000000000000000000 ) ) ;
#5 = DIRECTION ( 'NONE',  ( -3.491481338843133355E-15, 1.224646799147353207E-16, -1.000000000000000000 ) ) ;
#6 = FACE_OUTER_BOUND ( 'NONE', #133, .T. ) ;
#7 = ADVANCED_FACE ( 'NONE', ( #192 ), #100, .T. ) ;
#8 = AXIS2_PLACEMENT_3D ( 'NONE', #69, #26, #237 ) ;
#9 = VERTEX_POINT ( 'NONE', #85 ) ;
#10 = CARTESIAN_POINT ( 'NONE',  ( 5.586370142149013368E-14, 2.324627663125876282E-32, 16.00000000000000000 ) ) ;
#11 = DIRECTION ( 'NONE',  ( -3.491481338843133355E-15, 1.224646799147353207E-16, -1.000000000000000000 ) ) ;
#12 = CARTESIAN_POINT ( 'NONE',  ( 5.586370142149013368E-14, 3.099999999999998312, 16.00000000000000000 ) ) ;
#13 = AXIS2_PLACEMENT_3D ( 'NONE', #214, #5, #160 ) ;
#14 = CARTESIAN_POINT ( 'NONE',  ( 5.646844372874567873E-14, 2.999999999999988010, 16.17320508075690455 ) ) ;
#15 = PERSON_AND_ORGANIZATION ( #196, #149 ) ;
#16 = APPROVAL_ROLE ( '' ) ;
#17 = ADVANCED_FACE ( 'NONE', ( #154 ), #229, .T. ) ;
#18 = DATE_AND_TIME ( #52, #44 ) ;
#19 = CALENDAR_DATE ( 2023, 28, 9 ) ;
#20 = ORIENTED_EDGE ( 'NONE', *, *, #226, .T. ) ;
#21 = AXIS2_PLACEMENT_3D ( 'NONE', #195, #11, #25 ) ;
#22 = ADVANCED_FACE ( 'NONE', ( #107 ), #178, .F. ) ;
#23 = ORIENTED_EDGE ( 'NONE', *, *, #65, .T. ) ;
#24 = CIRCLE ( 'NONE', #177, 2.400000000000003464 ) ;
#25 = DIRECTION ( 'NONE',  ( 0.000000000000000000, 1.000000000000000000, 0.000000000000000000 ) ) ;
#26 = DIRECTION ( 'NONE',  ( -3.491481338843133355E-15, 1.224646799147353207E-16, -1.000000000000000000 ) ) ;
#27 = FACE_OUTER_BOUND ( 'NONE', #211, .T. ) ;
#28 = CC_DESIGN_APPROVAL ( #87, ( #136 ) ) ;
#29 = DIRECTION ( 'NONE',  ( 3.491481338843133355E-15, -1.224646799147353207E-16, 1.000000000000000000 ) ) ;
#30 = DIRECTION ( 'NONE',  ( 0.000000000000000000, 1.000000000000000000, 0.000000000000000000 ) ) ;
#31 = APPLICATION_CONTEXT ( 'configuration controlled 3d designs of mechanical parts and assemblies' ) ;
#32 = PERSON_AND_ORGANIZATION ( #196, #149 ) ;
#33 = CIRCLE ( 'NONE', #130, 2.699999999999998401 ) ;
#34 = CC_DESIGN_DATE_AND_TIME_ASSIGNMENT ( #58, #77, ( #136 ) ) ;
#35 = APPLICATION_PROTOCOL_DEFINITION ( 'international standard', 'config_control_design', 1994, #31 ) ;
#36 = CLOSED_SHELL ( 'NONE', ( #106, #205, #219, #156, #22 ) ) ;
#37 = EDGE_LOOP ( 'NONE', ( #81 ) ) ;
#38 = CIRCLE ( 'NONE', #13, 3.099999999999999645 ) ;
#39 = EDGE_LOOP ( 'NONE', ( #23 ) ) ;
#40 = PRODUCT_RELATED_PRODUCT_CATEGORY ( 'detail', '', ( #42 ) ) ;
#41 = EDGE_LOOP ( 'NONE', ( #194 ) ) ;
#42 = PRODUCT ( '342052', '342052', '', ( #183 ) ) ;
#43 = CARTESIAN_POINT ( 'NONE',  ( 5.586370142149013368E-14, -1.959434878635765131E-15, 16.00000000000000000 ) ) ;
#44 = LOCAL_TIME ( 15, 33, 9.000000000000000000, #166 ) ;
#45 = DIRECTION ( 'NONE',  ( -3.491481338843133355E-15, 1.224646799147353207E-16, -1.000000000000000000 ) ) ;
#46 = EDGE_CURVE ( 'NONE', #9, #9, #38, .T. ) ;
#47 = DIRECTION ( 'NONE',  ( 4.275831445896958607E-31, 1.000000000000000000, 1.224646799147353207E-16 ) ) ;
#48 = MANIFOLD_SOLID_BREP ( 'Corps-Déplacer/Copier1[2]', #102 ) ;
#49 = CARTESIAN_POINT ( 'NONE',  ( 5.586370142149013368E-14, -1.959434878635765131E-15, 16.00000000000000000 ) ) ;
#50 = DIRECTION ( 'NONE',  ( 0.000000000000000000, 1.000000000000000000, 0.000000000000000000 ) ) ;
#51 = MANIFOLD_SOLID_BREP ( 'Corps-Déplacer/Copier1[1]', #36 ) ;
#52 = CALENDAR_DATE ( 2023, 28, 9 ) ;
#53 = APPROVAL_DATE_TIME ( #18, #98 ) ;
#54 = DATE_AND_TIME ( #73, #208 ) ;
#55 = CARTESIAN_POINT ( 'NONE',  ( 0.000000000000000000, 0.000000000000000000, 0.000000000000000000 ) ) ;
#56 = ADVANCED_BREP_SHAPE_REPRESENTATION ( '342052', ( #51, #48, #228 ), #221 ) ;
#57 =( LENGTH_UNIT ( ) NAMED_UNIT ( * ) SI_UNIT ( .MILLI., .METRE. ) );
#58 = DATE_AND_TIME ( #132, #111 ) ;
#59 = COORDINATED_UNIVERSAL_TIME_OFFSET ( 1, 0, .AHEAD. ) ;
#60 = EDGE_LOOP ( 'NONE', ( #209 ) ) ;
#61 = CC_DESIGN_PERSON_AND_ORGANIZATION_ASSIGNMENT ( #90, #72, ( #42 ) ) ;
#62 = CIRCLE ( 'NONE', #80, 3.100000000000000533 ) ;
#63 = CARTESIAN_POINT ( 'NONE',  ( 5.586370142149013368E-14, 2.324627663125876282E-32, 16.00000000000000000 ) ) ;
#64 = EDGE_LOOP ( 'NONE', ( #151 ) ) ;
#65 = EDGE_CURVE ( 'NONE', #159, #159, #162, .T. ) ;
#66 = DIRECTION ( 'NONE',  ( -3.491481338843133355E-15, 1.224646799147353207E-16, -1.000000000000000000 ) ) ;
#67 = DIRECTION ( 'NONE',  ( -4.275831445896958607E-31, -1.000000000000000000, -1.224646799147353207E-16 ) ) ;
#68 = CARTESIAN_POINT ( 'NONE',  ( 0.000000000000000000, 0.000000000000000000, 0.000000000000000000 ) ) ;
#69 = CARTESIAN_POINT ( 'NONE',  ( 0.000000000000000000, 0.000000000000000000, 0.000000000000000000 ) ) ;
#70 = AXIS2_PLACEMENT_3D ( 'NONE', #105, #29, #234 ) ;
#71 = PERSON_AND_ORGANIZATION_ROLE ( 'creator' ) ;
#72 = PERSON_AND_ORGANIZATION_ROLE ( 'design_owner' ) ;
#73 = CALENDAR_DATE ( 2023, 28, 9 ) ;
#74 = EDGE_CURVE ( 'NONE', #145, #145, #24, .T. ) ;
#75 = PERSON_AND_ORGANIZATION ( #196, #149 ) ;
#76 = CARTESIAN_POINT ( 'NONE',  ( 3.505447264198505131E-13, 2.999999999999990674, 100.3999999999999915 ) ) ;
#77 = DATE_TIME_ROLE ( 'classification_date' ) ;
#78 = LOCAL_TIME ( 15, 33, 9.000000000000000000, #167 ) ;
#79 = DIRECTION ( 'NONE',  ( 4.275831445896958607E-31, 1.000000000000000000, 1.224646799147353207E-16 ) ) ;
#80 = AXIS2_PLACEMENT_3D ( 'NONE', #43, #104, #175 ) ;
#81 = ORIENTED_EDGE ( 'NONE', *, *, #117, .T. ) ;
#82 = FACE_OUTER_BOUND ( 'NONE', #60, .T. ) ;
#83 = FACE_OUTER_BOUND ( 'NONE', #116, .T. ) ;
#84 = AXIS2_PLACEMENT_3D ( 'NONE', #68, #202, #47 ) ;
#85 = CARTESIAN_POINT ( 'NONE',  ( 1.396592535537253342E-15, 3.099999999999999645, 0.3999999999999999667 ) ) ;
#86 = DIRECTION ( 'NONE',  ( 4.275831445896958607E-31, 1.000000000000000000, 1.224646799147353207E-16 ) ) ;
#87 = APPROVAL ( #150, 'UNSPECIFIED' ) ;
#88 = DIRECTION ( 'NONE',  ( -3.491481338843133355E-15, 1.224646799147353207E-16, -1.000000000000000000 ) ) ;
#89 = CONICAL_SURFACE ( 'NONE', #185, 2.400000000000003464, 0.7853981633974335130 ) ;
#90 = PERSON_AND_ORGANIZATION ( #196, #149 ) ;
#91 =( NAMED_UNIT ( * ) PLANE_ANGLE_UNIT ( ) SI_UNIT ( $, .RADIAN. ) );
#92 = PERSON_AND_ORGANIZATION_ROLE ( 'design_supplier' ) ;
#93 = APPROVAL_STATUS ( 'not_yet_approved' ) ;
#94 = PERSON_AND_ORGANIZATION ( #196, #149 ) ;
#95 = CC_DESIGN_PERSON_AND_ORGANIZATION_ASSIGNMENT ( #15, #92, ( #241 ) ) ;
#96 = ORIENTED_EDGE ( 'NONE', *, *, #110, .T. ) ;
#97 = APPROVAL_ROLE ( '' ) ;
#98 = APPROVAL ( #93, 'UNSPECIFIED' ) ;
#99 = EDGE_LOOP ( 'NONE', ( #213 ) ) ;
#100 = PLANE ( 'NONE',  #200 ) ;
#101 = EDGE_LOOP ( 'NONE', ( #96 ) ) ;
#102 = CLOSED_SHELL ( 'NONE', ( #180, #17, #7, #137 ) ) ;
#103 = DIRECTION ( 'NONE',  ( -3.491481338843133355E-15, 1.224646799147353207E-16, -1.000000000000000000 ) ) ;
#104 = DIRECTION ( 'NONE',  ( -3.491481338843133355E-15, 1.224646799147353207E-16, -1.000000000000000000 ) ) ;
#105 = CARTESIAN_POINT ( 'NONE',  ( -1.154474490392178246E-30, 4.049351413187013352E-32, -3.306546357697851761E-16 ) ) ;
#106 = ADVANCED_FACE ( 'NONE', ( #82 ), #122, .F. ) ;
#107 = FACE_OUTER_BOUND ( 'NONE', #41, .T. ) ;
#108 = CARTESIAN_POINT ( 'NONE',  ( 3.526396152231565067E-13, -1.236893267138826732E-14, 101.0000000000000000 ) ) ;
#109 = APPROVAL_STATUS ( 'not_yet_approved' ) ;
#110 = EDGE_CURVE ( 'NONE', #204, #204, #173, .T. ) ;
#111 = LOCAL_TIME ( 15, 33, 9.000000000000000000, #193 ) ;
#112 = DATE_AND_TIME ( #126, #78 ) ;
#113 = PERSON_AND_ORGANIZATION_ROLE ( 'creator' ) ;
#114 = DIRECTION ( 'NONE',  ( 1.000000000000000000, 0.000000000000000000, 0.000000000000000000 ) ) ;
#115 = AXIS2_PLACEMENT_3D ( 'NONE', #141, #103, #218 ) ;
#116 = EDGE_LOOP ( 'NONE', ( #174 ) ) ;
#117 = EDGE_CURVE ( 'NONE', #239, #239, #33, .T. ) ;
#118 = CONICAL_SURFACE ( 'NONE', #70, 2.699999999999998401, 0.7853981633974497223 ) ;
#119 = CARTESIAN_POINT ( 'NONE',  ( 5.586370142149013368E-14, -1.959434878635765131E-15, 16.00000000000000000 ) ) ;
#120 = CONICAL_SURFACE ( 'NONE', #165, 3.100000000000000533, 0.5235987755983029235 ) ;
#121 = FACE_OUTER_BOUND ( 'NONE', #169, .T. ) ;
#122 = PLANE ( 'NONE',  #212 ) ;
#123 = DIRECTION ( 'NONE',  ( -3.491481338843133355E-15, 1.224646799147353207E-16, -1.000000000000000000 ) ) ;
#124 = CC_DESIGN_SECURITY_CLASSIFICATION ( #136, ( #241 ) ) ;
#125 = FACE_OUTER_BOUND ( 'NONE', #135, .T. ) ;
#126 = CALENDAR_DATE ( 2023, 28, 9 ) ;
#127 = APPLICATION_PROTOCOL_DEFINITION ( 'international standard', 'config_control_design', 1994, #187 ) ;
#128 = AXIS2_PLACEMENT_3D ( 'NONE', #49, #45, #216 ) ;
#129 = APPROVAL_DATE_TIME ( #54, #164 ) ;
#130 = AXIS2_PLACEMENT_3D ( 'NONE', #235, #123, #86 ) ;
#131 = PERSON_AND_ORGANIZATION ( #196, #149 ) ;
#132 = CALENDAR_DATE ( 2023, 28, 9 ) ;
#133 = EDGE_LOOP ( 'NONE', ( #3 ) ) ;
#134 = APPROVAL_DATE_TIME ( #210, #87 ) ;
#135 = EDGE_LOOP ( 'NONE', ( #153 ) ) ;
#136 = SECURITY_CLASSIFICATION ( '', '', #163 ) ;
#137 = ADVANCED_FACE ( 'NONE', ( #27, #155 ), #118, .T. ) ;
#138 = CYLINDRICAL_SURFACE ( 'NONE', #84, 2.999999999999996447 ) ;
#139 = FACE_OUTER_BOUND ( 'NONE', #101, .T. ) ;
#140 = DIRECTION ( 'NONE',  ( -3.491481338843133355E-15, 1.224646799147353207E-16, -1.000000000000000000 ) ) ;
#141 = CARTESIAN_POINT ( 'NONE',  ( 3.526396152231565067E-13, 1.799711739194212982E-32, 101.0000000000000000 ) ) ;
#142 = DIRECTION ( 'NONE',  ( 3.491481338843133355E-15, -1.224646799147353207E-16, 1.000000000000000000 ) ) ;
#143 = APPROVAL_PERSON_ORGANIZATION ( #32, #164, #224 ) ;
#144 = CARTESIAN_POINT ( 'NONE',  ( 3.526396152231565067E-13, 2.399999999999990585, 101.0000000000000000 ) ) ;
#145 = VERTEX_POINT ( 'NONE', #144 ) ;
#146 = CIRCLE ( 'NONE', #21, 3.000000000000002665 ) ;
#147 = VERTEX_POINT ( 'NONE', #76 ) ;
#148 = CC_DESIGN_DATE_AND_TIME_ASSIGNMENT ( #112, #203, ( #171 ) ) ;
#149 = ORGANIZATION ( 'UNSPECIFIED', 'UNSPECIFIED', '' ) ;
#150 = APPROVAL_STATUS ( 'not_yet_approved' ) ;
#151 = ORIENTED_EDGE ( 'NONE', *, *, #117, .F. ) ;
#152 = SHAPE_DEFINITION_REPRESENTATION ( #222, #56 ) ;
#153 = ORIENTED_EDGE ( 'NONE', *, *, #191, .F. ) ;
#154 = FACE_OUTER_BOUND ( 'NONE', #99, .T. ) ;
#155 = FACE_BOUND ( 'NONE', #64, .T. ) ;
#156 = ADVANCED_FACE ( 'NONE', ( #121, #197 ), #89, .T. ) ;
#157 = FACE_OUTER_BOUND ( 'NONE', #227, .T. ) ;
#158 = AXIS2_PLACEMENT_3D ( 'NONE', #63, #142, #232 ) ;
#159 = VERTEX_POINT ( 'NONE', #14 ) ;
#160 = DIRECTION ( 'NONE',  ( 4.348874067971178496E-31, 1.000000000000000000, 1.224099226999763285E-16 ) ) ;
#161 = DIRECTION ( 'NONE',  ( 0.000000000000000000, 1.000000000000000000, 0.000000000000000000 ) ) ;
#162 = CIRCLE ( 'NONE', #190, 2.999999999999990230 ) ;
#163 = SECURITY_CLASSIFICATION_LEVEL ( 'unclassified' ) ;
#164 = APPROVAL ( #109, 'UNSPECIFIED' ) ;
#165 = AXIS2_PLACEMENT_3D ( 'NONE', #119, #140, #30 ) ;
#166 = COORDINATED_UNIVERSAL_TIME_OFFSET ( 1, 0, .AHEAD. ) ;
#167 = COORDINATED_UNIVERSAL_TIME_OFFSET ( 1, 0, .AHEAD. ) ;
#168 = UNCERTAINTY_MEASURE_WITH_UNIT (LENGTH_MEASURE( 1.000000000000000082E-05 ), #57, 'distance_accuracy_value', 'NONE');
#169 = EDGE_LOOP ( 'NONE', ( #2 ) ) ;
#170 = PERSON_AND_ORGANIZATION_ROLE ( 'classification_officer' ) ;
#171 = PRODUCT_DEFINITION ( 'UNKNOWN', '', #241, #230 ) ;
#172 = CARTESIAN_POINT ( 'NONE',  ( -5.772372451960891229E-31, 2.024675706593506676E-32, -1.653273178848925881E-16 ) ) ;
#173 = CIRCLE ( 'NONE', #128, 3.100000000000000533 ) ;
#174 = ORIENTED_EDGE ( 'NONE', *, *, #46, .F. ) ;
#175 = DIRECTION ( 'NONE',  ( 0.000000000000000000, 1.000000000000000000, 0.000000000000000000 ) ) ;
#176 = CARTESIAN_POINT ( 'NONE',  ( 3.526396152231565067E-13, -1.236893267138826732E-14, 101.0000000000000000 ) ) ;
#177 = AXIS2_PLACEMENT_3D ( 'NONE', #176, #198, #50 ) ;
#178 = PLANE ( 'NONE',  #115 ) ;
#179 = FACE_BOUND ( 'NONE', #39, .T. ) ;
#180 = ADVANCED_FACE ( 'NONE', ( #139, #83 ), #220, .T. ) ;
#181 = CC_DESIGN_APPROVAL ( #98, ( #171 ) ) ;
#182 = COORDINATED_UNIVERSAL_TIME_OFFSET ( 1, 0, .AHEAD. ) ;
#183 = MECHANICAL_CONTEXT ( 'NONE', #31, 'mechanical' ) ;
#184 = PERSON_AND_ORGANIZATION ( #196, #149 ) ;
#185 = AXIS2_PLACEMENT_3D ( 'NONE', #108, #66, #236 ) ;
#186 = CARTESIAN_POINT ( 'NONE',  ( -1.710569414459005214E-46, 2.699999999999998401, 0.000000000000000000 ) ) ;
#187 = APPLICATION_CONTEXT ( 'configuration controlled 3d designs of mechanical parts and assemblies' ) ;
#188 = ORIENTED_EDGE ( 'NONE', *, *, #74, .T. ) ;
#189 = ORIENTED_EDGE ( 'NONE', *, *, #46, .T. ) ;
#190 = AXIS2_PLACEMENT_3D ( 'NONE', #199, #88, #161 ) ;
#191 = EDGE_CURVE ( 'NONE', #240, #240, #62, .T. ) ;
#192 = FACE_OUTER_BOUND ( 'NONE', #37, .T. ) ;
#193 = COORDINATED_UNIVERSAL_TIME_OFFSET ( 1, 0, .AHEAD. ) ;
#194 = ORIENTED_EDGE ( 'NONE', *, *, #74, .F. ) ;
#195 = CARTESIAN_POINT ( 'NONE',  ( 3.505447264198505131E-13, -1.229545386343942402E-14, 100.3999999999999915 ) ) ;
#196 = PERSON ( 'UNSPECIFIED', 'UNSPECIFIED', 'UNSPECIFIED', ('UNSPECIFIED'), ('UNSPECIFIED'), ('UNSPECIFIED') ) ;
#197 = FACE_BOUND ( 'NONE', #231, .T. ) ;
#198 = DIRECTION ( 'NONE',  ( -3.491481338843133355E-15, 1.224646799147353207E-16, -1.000000000000000000 ) ) ;
#199 = CARTESIAN_POINT ( 'NONE',  ( 5.646844372874567873E-14, -1.980646383410265227E-15, 16.17320508075690455 ) ) ;
#200 = AXIS2_PLACEMENT_3D ( 'NONE', #172, #4, #79 ) ;
#201 = CC_DESIGN_PERSON_AND_ORGANIZATION_ASSIGNMENT ( #75, #170, ( #136 ) ) ;
#202 = DIRECTION ( 'NONE',  ( -3.491481338843133355E-15, 1.224646799147353207E-16, -1.000000000000000000 ) ) ;
#203 = DATE_TIME_ROLE ( 'creation_date' ) ;
#204 = VERTEX_POINT ( 'NONE', #242 ) ;
#205 = ADVANCED_FACE ( 'NONE', ( #179, #125 ), #120, .T. ) ;
#206 = PERSON_AND_ORGANIZATION ( #196, #149 ) ;
#207 =( NAMED_UNIT ( * ) SI_UNIT ( $, .STERADIAN. ) SOLID_ANGLE_UNIT ( ) );
#208 = LOCAL_TIME ( 15, 33, 9.000000000000000000, #182 ) ;
#209 = ORIENTED_EDGE ( 'NONE', *, *, #191, .T. ) ;
#210 = DATE_AND_TIME ( #19, #1 ) ;
#211 = EDGE_LOOP ( 'NONE', ( #189 ) ) ;
#212 = AXIS2_PLACEMENT_3D ( 'NONE', #10, #217, #67 ) ;
#213 = ORIENTED_EDGE ( 'NONE', *, *, #110, .F. ) ;
#214 = CARTESIAN_POINT ( 'NONE',  ( 1.396592535537251962E-15, -4.898587196589407529E-17, 0.3999999999999995781 ) ) ;
#215 = CC_DESIGN_APPROVAL ( #164, ( #241 ) ) ;
#216 = DIRECTION ( 'NONE',  ( 0.000000000000000000, 1.000000000000000000, 0.000000000000000000 ) ) ;
#217 = DIRECTION ( 'NONE',  ( 3.491481338843133355E-15, -1.224646799147353207E-16, 1.000000000000000000 ) ) ;
#218 = DIRECTION ( 'NONE',  ( 4.275831445896958607E-31, 1.000000000000000000, 1.224646799147353207E-16 ) ) ;
#219 = ADVANCED_FACE ( 'NONE', ( #6, #157 ), #138, .T. ) ;
#220 = CYLINDRICAL_SURFACE ( 'NONE', #8, 3.100000000000000089 ) ;
#221 =( GEOMETRIC_REPRESENTATION_CONTEXT ( 3 ) GLOBAL_UNCERTAINTY_ASSIGNED_CONTEXT ( ( #168 ) ) GLOBAL_UNIT_ASSIGNED_CONTEXT ( ( #57, #91, #207 ) ) REPRESENTATION_CONTEXT ( 'NONE', 'WORKASPACE' ) );
#222 = PRODUCT_DEFINITION_SHAPE ( 'NONE', 'NONE',  #171 ) ;
#223 = DIRECTION ( 'NONE',  ( 0.000000000000000000, 0.000000000000000000, 1.000000000000000000 ) ) ;
#224 = APPROVAL_ROLE ( '' ) ;
#225 = APPROVAL_PERSON_ORGANIZATION ( #184, #98, #16 ) ;
#226 = EDGE_CURVE ( 'NONE', #147, #147, #146, .T. ) ;
#227 = EDGE_LOOP ( 'NONE', ( #20 ) ) ;
#228 = AXIS2_PLACEMENT_3D ( 'NONE', #55, #223, #114 ) ;
#229 = PLANE ( 'NONE',  #158 ) ;
#230 = DESIGN_CONTEXT ( 'detailed design', #187, 'design' ) ;
#231 = EDGE_LOOP ( 'NONE', ( #188 ) ) ;
#232 = DIRECTION ( 'NONE',  ( -4.275831445896958607E-31, -1.000000000000000000, -1.224646799147353207E-16 ) ) ;
#233 = APPROVAL_PERSON_ORGANIZATION ( #131, #87, #97 ) ;
#234 = DIRECTION ( 'NONE',  ( -4.275831445896957731E-31, -1.000000000000000000, -1.224646799147353207E-16 ) ) ;
#235 = CARTESIAN_POINT ( 'NONE',  ( -1.154474490392178246E-30, 4.049351413187013352E-32, -3.306546357697851761E-16 ) ) ;
#236 = DIRECTION ( 'NONE',  ( 0.000000000000000000, 1.000000000000000000, 0.000000000000000000 ) ) ;
#237 = DIRECTION ( 'NONE',  ( 4.275831445896958607E-31, 1.000000000000000000, 1.224646799147353207E-16 ) ) ;
#238 = CC_DESIGN_PERSON_AND_ORGANIZATION_ASSIGNMENT ( #94, #71, ( #171 ) ) ;
#239 = VERTEX_POINT ( 'NONE', #186 ) ;
#240 = VERTEX_POINT ( 'NONE', #12 ) ;
#241 = PRODUCT_DEFINITION_FORMATION_WITH_SPECIFIED_SOURCE ( 'ANY', '', #42, .NOT_KNOWN. ) ;
#242 = CARTESIAN_POINT ( 'NONE',  ( 5.586370142149013368E-14, 3.099999999999998312, 16.00000000000000000 ) ) ;
#243 = CC_DESIGN_PERSON_AND_ORGANIZATION_ASSIGNMENT ( #206, #113, ( #241 ) ) ;
ENDSEC;
END-ISO-10303-21;
