ISO-10303-21;
HEADER;
FILE_DESCRIPTION (( 'STEP AP203' ),
    '1' );
FILE_NAME ('342049.step',
    '2021-11-26T06:34:21',
    ( '' ),
    ( '' ),
    'SwSTEP 2.0',
    'SolidWorks 2019',
    '' );
FILE_SCHEMA (( 'CONFIG_CONTROL_DESIGN' ));
ENDSEC;

DATA;
#1 = SECURITY_CLASSIFICATION ( '', '', #160 ) ;
#2 = ORIENTED_EDGE ( 'NONE', *, *, #50, .T. ) ;
#3 = FACE_OUTER_BOUND ( 'NONE', #29, .T. ) ;
#4 = CARTESIAN_POINT ( 'NONE',  ( -5.422555286737133862E-30, 4.711324865405186024, -1.553081560657529271E-15 ) ) ;
#5 = DIRECTION ( 'NONE',  ( 4.275831445896959482E-31, 1.000000000000000000, 1.224646799147353700E-16 ) ) ;
#6 = CLOSED_SHELL ( 'NONE', ( #211, #19, #84, #121, #102 ) ) ;
#7 = FACE_OUTER_BOUND ( 'NONE', #224, .T. ) ;
#8 = PLANE ( 'NONE',  #14 ) ;
#9 = DIRECTION ( 'NONE',  ( -2.221575396987081551E-30, 1.000000000000000000, -6.362844825409199296E-16 ) ) ;
#10 = CONICAL_SURFACE ( 'NONE', #96, 3.000000000000011990, 0.7853981633974453924 ) ;
#11 = PERSON_AND_ORGANIZATION_ROLE ( 'design_owner' ) ;
#12 = LOCAL_TIME ( 7, 34, 21.00000000000000000, #217 ) ;
#13 = ADVANCED_FACE ( 'NONE', ( #3, #51 ), #90, .T. ) ;
#14 = AXIS2_PLACEMENT_3D ( 'NONE', #56, #130, #55 ) ;
#15 = CIRCLE ( 'NONE', #79, 5.000000000000000000 ) ;
#16 = CC_DESIGN_PERSON_AND_ORGANIZATION_ASSIGNMENT ( #97, #11, ( #158 ) ) ;
#17 = EDGE_LOOP ( 'NONE', ( #109 ) ) ;
#18 = EDGE_LOOP ( 'NONE', ( #108 ) ) ;
#19 = ADVANCED_FACE ( 'NONE', ( #106, #182 ), #10, .T. ) ;
#20 = CARTESIAN_POINT ( 'NONE',  ( 5.677081488237339129E-14, -1.991252135797513697E-15, 16.25980762113533729 ) ) ;
#21 = DIRECTION ( 'NONE',  ( -3.491481338843133355E-15, -6.362844825409199296E-16, -1.000000000000000000 ) ) ;
#22 = DIRECTION ( 'NONE',  ( -3.491481338843133355E-15, 1.224646799147353454E-16, -1.000000000000000000 ) ) ;
#23 = CARTESIAN_POINT ( 'NONE',  ( 1.008801624292100327E-29, 1.838431190675704967E-30, 2.889322686817957655E-15 ) ) ;
#24 = CALENDAR_DATE ( 2021, 26, 11 ) ;
#25 = DIRECTION ( 'NONE',  ( 0.0000000000000000000, 1.000000000000000000, 0.0000000000000000000 ) ) ;
#26 = VERTEX_POINT ( 'NONE', #118 ) ;
#27 = EDGE_CURVE ( 'NONE', #126, #126, #139, .T. ) ;
#28 = LOCAL_TIME ( 7, 34, 21.00000000000000000, #196 ) ;
#29 = EDGE_LOOP ( 'NONE', ( #225 ) ) ;
#30 = EDGE_LOOP ( 'NONE', ( #243 ) ) ;
#31 = CC_DESIGN_PERSON_AND_ORGANIZATION_ASSIGNMENT ( #75, #145, ( #71 ) ) ;
#32 = EDGE_CURVE ( 'NONE', #110, #110, #240, .T. ) ;
#33 = AXIS2_PLACEMENT_3D ( 'NONE', #74, #191, #171 ) ;
#34 = CARTESIAN_POINT ( 'NONE',  ( 1.745740669421566283E-15, 4.999999999999998224, 0.5000000000000000000 ) ) ;
#35 = CARTESIAN_POINT ( 'NONE',  ( 5.677081488237339129E-14, 4.999999999999998224, 16.25980762113533729 ) ) ;
#36 = DIRECTION ( 'NONE',  ( -3.491481338843133355E-15, 1.224646799147353454E-16, -1.000000000000000000 ) ) ;
#37 = CC_DESIGN_SECURITY_CLASSIFICATION ( #1, ( #71 ) ) ;
#38 = DIRECTION ( 'NONE',  ( -3.491481338843133355E-15, -6.362844825409199296E-16, -1.000000000000000000 ) ) ;
#39 = DIRECTION ( 'NONE',  ( -3.491481338843133355E-15, 1.224646799147353454E-16, -1.000000000000000000 ) ) ;
#40 = CARTESIAN_POINT ( 'NONE',  ( 6.886566102748345277E-14, 2.999999999999985789, 19.72390923627315829 ) ) ;
#41 = EDGE_CURVE ( 'NONE', #72, #72, #15, .T. ) ;
#42 = APPROVAL_PERSON_ORGANIZATION ( #135, #174, #140 ) ;
#43 = APPROVAL_ROLE ( '' ) ;
#44 = VERTEX_POINT ( 'NONE', #213 ) ;
#45 = CARTESIAN_POINT ( 'NONE',  ( 1.008801624292100327E-29, 1.838431190675704967E-30, 2.889322686817957655E-15 ) ) ;
#46 = EDGE_LOOP ( 'NONE', ( #162 ) ) ;
#47 = AXIS2_PLACEMENT_3D ( 'NONE', #192, #22, #25 ) ;
#48 = EDGE_LOOP ( 'NONE', ( #2 ) ) ;
#49 = ORIENTED_EDGE ( 'NONE', *, *, #50, .F. ) ;
#50 = EDGE_CURVE ( 'NONE', #112, #112, #73, .T. ) ;
#51 = FACE_BOUND ( 'NONE', #200, .T. ) ;
#52 = APPLICATION_CONTEXT ( 'configuration controlled 3d designs of mechanical parts and assemblies' ) ;
#53 = FACE_OUTER_BOUND ( 'NONE', #68, .T. ) ;
#54 = FACE_OUTER_BOUND ( 'NONE', #166, .T. ) ;
#55 = DIRECTION ( 'NONE',  ( -4.275831445896959482E-31, -1.000000000000000000, -1.224646799147353454E-16 ) ) ;
#56 = CARTESIAN_POINT ( 'NONE',  ( 4.085033166446466404E-13, -1.432836755002403442E-14, 117.0000000000000000 ) ) ;
#57 = ADVANCED_FACE ( 'NONE', ( #232 ), #168, .T. ) ;
#58 = DIRECTION ( 'NONE',  ( 0.0000000000000000000, 0.0000000000000000000, 1.000000000000000000 ) ) ;
#59 = CALENDAR_DATE ( 2021, 26, 11 ) ;
#60 = AXIS2_PLACEMENT_3D ( 'NONE', #206, #38, #170 ) ;
#61 = ADVANCED_BREP_SHAPE_REPRESENTATION ( '342049', ( #157, #76, #223 ), #69 ) ;
#62 = PERSON_AND_ORGANIZATION ( #205, #208 ) ;
#63 = AXIS2_PLACEMENT_3D ( 'NONE', #80, #89, #114 ) ;
#64 = APPROVAL_DATE_TIME ( #197, #221 ) ;
#65 = DATE_TIME_ROLE ( 'classification_date' ) ;
#66 = AXIS2_PLACEMENT_3D ( 'NONE', #45, #70, #198 ) ;
#67 = APPLICATION_CONTEXT ( 'configuration controlled 3d designs of mechanical parts and assemblies' ) ;
#68 = EDGE_LOOP ( 'NONE', ( #201 ) ) ;
#69 =( GEOMETRIC_REPRESENTATION_CONTEXT ( 3 ) GLOBAL_UNCERTAINTY_ASSIGNED_CONTEXT ( ( #233 ) ) GLOBAL_UNIT_ASSIGNED_CONTEXT ( ( #137, #193, #195 ) ) REPRESENTATION_CONTEXT ( 'NONE', 'WORKASPACE' ) );
#70 = DIRECTION ( 'NONE',  ( 3.491481338843133355E-15, 6.362844825409199296E-16, 1.000000000000000000 ) ) ;
#71 = PRODUCT_DEFINITION_FORMATION_WITH_SPECIFIED_SOURCE ( 'ANY', '', #158, .NOT_KNOWN. ) ;
#72 = VERTEX_POINT ( 'NONE', #35 ) ;
#73 = CIRCLE ( 'NONE', #119, 4.999999999999987566 ) ;
#74 = CARTESIAN_POINT ( 'NONE',  ( 6.886566102748345277E-14, -2.415482231287484450E-15, 19.72390923627315829 ) ) ;
#75 = PERSON_AND_ORGANIZATION ( #205, #208 ) ;
#76 = MANIFOLD_SOLID_BREP ( 'Corps-Déplacer/Copier1[2]', #194 ) ;
#77 = PLANE ( 'NONE',  #117 ) ;
#78 = CARTESIAN_POINT ( 'NONE',  ( 4.085033166446466404E-13, -1.432836755002403758E-14, 117.0000000000000000 ) ) ;
#79 = AXIS2_PLACEMENT_3D ( 'NONE', #20, #39, #150 ) ;
#80 = CARTESIAN_POINT ( 'NONE',  ( 5.677081488237339129E-14, 4.999999999999998224, 16.25980762113533729 ) ) ;
#81 = PERSON_AND_ORGANIZATION ( #205, #208 ) ;
#82 = DATE_AND_TIME ( #24, #136 ) ;
#83 = SHAPE_DEFINITION_REPRESENTATION ( #220, #61 ) ;
#84 = ADVANCED_FACE ( 'NONE', ( #54, #128 ), #207, .T. ) ;
#85 = ORIENTED_EDGE ( 'NONE', *, *, #41, .F. ) ;
#86 = EDGE_LOOP ( 'NONE', ( #187 ) ) ;
#87 = CYLINDRICAL_SURFACE ( 'NONE', #60, 4.999999999999992895 ) ;
#88 = EDGE_CURVE ( 'NONE', #215, #215, #169, .T. ) ;
#89 = DIRECTION ( 'NONE',  ( -3.491481338843133355E-15, 1.224646799147353454E-16, -1.000000000000000000 ) ) ;
#90 = CONICAL_SURFACE ( 'NONE', #66, 4.711324865405186024, 0.5235987755982977054 ) ;
#91 = FACE_OUTER_BOUND ( 'NONE', #48, .T. ) ;
#92 = APPROVAL_DATE_TIME ( #153, #174 ) ;
#93 = DIRECTION ( 'NONE',  ( -3.491481338843133355E-15, -6.362844825409199296E-16, -1.000000000000000000 ) ) ;
#94 = DIRECTION ( 'NONE',  ( -2.221575396987081901E-30, 1.000000000000000000, -6.362844825409199296E-16 ) ) ;
#95 = APPROVAL_DATE_TIME ( #82, #133 ) ;
#96 = AXIS2_PLACEMENT_3D ( 'NONE', #122, #142, #222 ) ;
#97 = PERSON_AND_ORGANIZATION ( #205, #208 ) ;
#98 = COORDINATED_UNIVERSAL_TIME_OFFSET ( 1, 0, .AHEAD. ) ;
#99 = CARTESIAN_POINT ( 'NONE',  ( 0.0000000000000000000, 0.0000000000000000000, 0.0000000000000000000 ) ) ;
#100 = CC_DESIGN_APPROVAL ( #174, ( #71 ) ) ;
#101 = APPROVAL_STATUS ( 'not_yet_approved' ) ;
#102 = ADVANCED_FACE ( 'NONE', ( #127 ), #229, .T. ) ;
#103 = CC_DESIGN_APPROVAL ( #221, ( #1 ) ) ;
#104 = PRODUCT_DEFINITION ( 'UNKNOWN', '', #71, #134 ) ;
#105 = PERSON_AND_ORGANIZATION_ROLE ( 'design_supplier' ) ;
#106 = FACE_BOUND ( 'NONE', #46, .T. ) ;
#107 = AXIS2_PLACEMENT_3D ( 'NONE', #190, #204, #116 ) ;
#108 = ORIENTED_EDGE ( 'NONE', *, *, #41, .T. ) ;
#109 = ORIENTED_EDGE ( 'NONE', *, *, #88, .T. ) ;
#110 = VERTEX_POINT ( 'NONE', #167 ) ;
#111 = COORDINATED_UNIVERSAL_TIME_OFFSET ( 1, 0, .AHEAD. ) ;
#112 = VERTEX_POINT ( 'NONE', #189 ) ;
#113 = APPROVAL_PERSON_ORGANIZATION ( #62, #221, #43 ) ;
#114 = DIRECTION ( 'NONE',  ( 4.275831445896959482E-31, 1.000000000000000000, 1.224646799147353454E-16 ) ) ;
#115 = CARTESIAN_POINT ( 'NONE',  ( 0.0000000000000000000, 0.0000000000000000000, 0.0000000000000000000 ) ) ;
#116 = DIRECTION ( 'NONE',  ( 0.0000000000000000000, 1.000000000000000000, 0.0000000000000000000 ) ) ;
#117 = AXIS2_PLACEMENT_3D ( 'NONE', #154, #151, #230 ) ;
#118 = CARTESIAN_POINT ( 'NONE',  ( -3.785471652766322713E-31, 4.711324865405186024, -1.084202172485504434E-16 ) ) ;
#119 = AXIS2_PLACEMENT_3D ( 'NONE', #148, #188, #228 ) ;
#120 = CIRCLE ( 'NONE', #47, 3.000000000000011990 ) ;
#121 = ADVANCED_FACE ( 'NONE', ( #209, #212 ), #202, .T. ) ;
#122 = CARTESIAN_POINT ( 'NONE',  ( 4.064084278413407478E-13, -1.425488874207519270E-14, 116.4000000000000057 ) ) ;
#123 = AXIS2_PLACEMENT_3D ( 'NONE', #78, #36, #173 ) ;
#124 = EDGE_LOOP ( 'NONE', ( #184 ) ) ;
#125 = EDGE_LOOP ( 'NONE', ( #85 ) ) ;
#126 = VERTEX_POINT ( 'NONE', #34 ) ;
#127 = FACE_OUTER_BOUND ( 'NONE', #18, .T. ) ;
#128 = FACE_OUTER_BOUND ( 'NONE', #86, .T. ) ;
#129 = PERSON_AND_ORGANIZATION ( #205, #208 ) ;
#130 = DIRECTION ( 'NONE',  ( 3.491481338843133355E-15, -1.224646799147353454E-16, 1.000000000000000000 ) ) ;
#131 = APPROVAL_ROLE ( '' ) ;
#132 = DIRECTION ( 'NONE',  ( -3.491481338843133355E-15, 1.224646799147353454E-16, -1.000000000000000000 ) ) ;
#133 = APPROVAL ( #138, 'UNSPECIFIED' ) ;
#134 = DESIGN_CONTEXT ( 'detailed design', #67, 'design' ) ;
#135 = PERSON_AND_ORGANIZATION ( #205, #208 ) ;
#136 = LOCAL_TIME ( 7, 34, 21.00000000000000000, #98 ) ;
#137 =( LENGTH_UNIT ( ) NAMED_UNIT ( * ) SI_UNIT ( .MILLI., .METRE. ) );
#138 = APPROVAL_STATUS ( 'not_yet_approved' ) ;
#139 = CIRCLE ( 'NONE', #141, 4.999999999999998224 ) ;
#140 = APPROVAL_ROLE ( '' ) ;
#141 = AXIS2_PLACEMENT_3D ( 'NONE', #183, #161, #152 ) ;
#142 = DIRECTION ( 'NONE',  ( -3.491481338843133355E-15, 1.224646799147353454E-16, -1.000000000000000000 ) ) ;
#143 = PERSON_AND_ORGANIZATION ( #205, #208 ) ;
#144 = AXIS2_PLACEMENT_3D ( 'NONE', #23, #21, #94 ) ;
#145 = PERSON_AND_ORGANIZATION_ROLE ( 'creator' ) ;
#146 = ORIENTED_EDGE ( 'NONE', *, *, #32, .F. ) ;
#147 = LOCAL_TIME ( 7, 34, 21.00000000000000000, #236 ) ;
#148 = CARTESIAN_POINT ( 'NONE',  ( 5.677081488237340392E-14, 1.034586327842900703E-14, 16.25980762113534084 ) ) ;
#149 = AXIS2_PLACEMENT_3D ( 'NONE', #4, #93, #9 ) ;
#150 = DIRECTION ( 'NONE',  ( 0.0000000000000000000, 1.000000000000000000, 0.0000000000000000000 ) ) ;
#151 = DIRECTION ( 'NONE',  ( 3.491481338843133355E-15, 6.362844825409199296E-16, 1.000000000000000000 ) ) ;
#152 = DIRECTION ( 'NONE',  ( -2.234078735489194290E-30, 1.000000000000000000, -6.288372600415927689E-16 ) ) ;
#153 = DATE_AND_TIME ( #219, #28 ) ;
#154 = CARTESIAN_POINT ( 'NONE',  ( 5.677081488237339129E-14, 1.034586327842900703E-14, 16.25980762113533729 ) ) ;
#155 = APPROVAL_STATUS ( 'not_yet_approved' ) ;
#156 = DATE_AND_TIME ( #241, #214 ) ;
#157 = MANIFOLD_SOLID_BREP ( 'Corps-Déplacer/Copier1[1]', #6 ) ;
#158 = PRODUCT ( '342049', '342049', '', ( #218 ) ) ;
#159 = ORIENTED_EDGE ( 'NONE', *, *, #163, .T. ) ;
#160 = SECURITY_CLASSIFICATION_LEVEL ( 'unclassified' ) ;
#161 = DIRECTION ( 'NONE',  ( -3.491481338843133355E-15, -6.362844825409199296E-16, -1.000000000000000000 ) ) ;
#162 = ORIENTED_EDGE ( 'NONE', *, *, #32, .T. ) ;
#163 = EDGE_CURVE ( 'NONE', #44, #44, #120, .T. ) ;
#164 = ORIENTED_EDGE ( 'NONE', *, *, #242, .F. ) ;
#165 = ADVANCED_FACE ( 'NONE', ( #91, #53 ), #87, .T. ) ;
#166 = EDGE_LOOP ( 'NONE', ( #159 ) ) ;
#167 = CARTESIAN_POINT ( 'NONE',  ( 4.085033166446466404E-13, 2.399999999999997691, 117.0000000000000000 ) ) ;
#168 = PLANE ( 'NONE',  #149 ) ;
#169 = CIRCLE ( 'NONE', #33, 2.999999999999988454 ) ;
#170 = DIRECTION ( 'NONE',  ( -2.221575396987081901E-30, 1.000000000000000000, -6.362844825409199296E-16 ) ) ;
#171 = DIRECTION ( 'NONE',  ( 0.0000000000000000000, 1.000000000000000000, 0.0000000000000000000 ) ) ;
#172 = PERSON_AND_ORGANIZATION ( #205, #208 ) ;
#173 = DIRECTION ( 'NONE',  ( 0.0000000000000000000, 1.000000000000000000, 0.0000000000000000000 ) ) ;
#174 = APPROVAL ( #155, 'UNSPECIFIED' ) ;
#175 = DATE_TIME_ROLE ( 'creation_date' ) ;
#176 = APPLICATION_PROTOCOL_DEFINITION ( 'international standard', 'config_control_design', 1994, #52 ) ;
#177 = PERSON_AND_ORGANIZATION_ROLE ( 'creator' ) ;
#178 = CC_DESIGN_DATE_AND_TIME_ASSIGNMENT ( #156, #65, ( #1 ) ) ;
#179 = PRODUCT_RELATED_PRODUCT_CATEGORY ( 'detail', '', ( #158 ) ) ;
#180 = ADVANCED_FACE ( 'NONE', ( #7 ), #77, .T. ) ;
#181 = CC_DESIGN_APPROVAL ( #133, ( #104 ) ) ;
#182 = FACE_OUTER_BOUND ( 'NONE', #30, .T. ) ;
#183 = CARTESIAN_POINT ( 'NONE',  ( 1.745740669421577524E-15, 3.181422412704619863E-16, 0.5000000000000031086 ) ) ;
#184 = ORIENTED_EDGE ( 'NONE', *, *, #242, .T. ) ;
#185 = CC_DESIGN_PERSON_AND_ORGANIZATION_ASSIGNMENT ( #143, #210, ( #1 ) ) ;
#186 = EDGE_LOOP ( 'NONE', ( #146 ) ) ;
#187 = ORIENTED_EDGE ( 'NONE', *, *, #88, .F. ) ;
#188 = DIRECTION ( 'NONE',  ( -3.491481338843133355E-15, -6.362844825409199296E-16, -1.000000000000000000 ) ) ;
#189 = CARTESIAN_POINT ( 'NONE',  ( 5.677081488237339129E-14, 4.999999999999998224, 16.25980762113533729 ) ) ;
#190 = CARTESIAN_POINT ( 'NONE',  ( 5.677081488237339129E-14, -1.991252135797513697E-15, 16.25980762113533729 ) ) ;
#191 = DIRECTION ( 'NONE',  ( -3.491481338843133355E-15, 1.224646799147353454E-16, -1.000000000000000000 ) ) ;
#192 = CARTESIAN_POINT ( 'NONE',  ( 4.064084278413407478E-13, -1.425488874207519270E-14, 116.4000000000000057 ) ) ;
#193 =( NAMED_UNIT ( * ) PLANE_ANGLE_UNIT ( ) SI_UNIT ( $, .RADIAN. ) );
#194 = CLOSED_SHELL ( 'NONE', ( #180, #165, #13, #57 ) ) ;
#195 =( NAMED_UNIT ( * ) SI_UNIT ( $, .STERADIAN. ) SOLID_ANGLE_UNIT ( ) );
#196 = COORDINATED_UNIVERSAL_TIME_OFFSET ( 1, 0, .AHEAD. ) ;
#197 = DATE_AND_TIME ( #237, #12 ) ;
#198 = DIRECTION ( 'NONE',  ( 2.221575396987082251E-30, -1.000000000000000000, 6.362844825409199296E-16 ) ) ;
#199 = APPROVAL_PERSON_ORGANIZATION ( #81, #133, #131 ) ;
#200 = EDGE_LOOP ( 'NONE', ( #164 ) ) ;
#201 = ORIENTED_EDGE ( 'NONE', *, *, #27, .F. ) ;
#202 = CONICAL_SURFACE ( 'NONE', #107, 5.000000000000000000, 0.5235987755982932645 ) ;
#203 = CC_DESIGN_PERSON_AND_ORGANIZATION_ASSIGNMENT ( #129, #105, ( #71 ) ) ;
#204 = DIRECTION ( 'NONE',  ( -3.491481338843133355E-15, 1.224646799147353454E-16, -1.000000000000000000 ) ) ;
#205 = PERSON ( 'UNSPECIFIED', 'UNSPECIFIED', 'UNSPECIFIED', ('UNSPECIFIED'), ('UNSPECIFIED'), ('UNSPECIFIED') ) ;
#206 = CARTESIAN_POINT ( 'NONE',  ( 0.0000000000000000000, 0.0000000000000000000, 0.0000000000000000000 ) ) ;
#207 = CYLINDRICAL_SURFACE ( 'NONE', #216, 3.000000000000000000 ) ;
#208 = ORGANIZATION ( 'UNSPECIFIED', 'UNSPECIFIED', '' ) ;
#209 = FACE_BOUND ( 'NONE', #17, .T. ) ;
#210 = PERSON_AND_ORGANIZATION_ROLE ( 'classification_officer' ) ;
#211 = ADVANCED_FACE ( 'NONE', ( #234 ), #8, .T. ) ;
#212 = FACE_OUTER_BOUND ( 'NONE', #125, .T. ) ;
#213 = CARTESIAN_POINT ( 'NONE',  ( 4.064084278413407478E-13, 2.999999999999997335, 116.4000000000000057 ) ) ;
#214 = LOCAL_TIME ( 7, 34, 21.00000000000000000, #111 ) ;
#215 = VERTEX_POINT ( 'NONE', #40 ) ;
#216 = AXIS2_PLACEMENT_3D ( 'NONE', #115, #132, #5 ) ;
#217 = COORDINATED_UNIVERSAL_TIME_OFFSET ( 1, 0, .AHEAD. ) ;
#218 = MECHANICAL_CONTEXT ( 'NONE', #52, 'mechanical' ) ;
#219 = CALENDAR_DATE ( 2021, 26, 11 ) ;
#220 = PRODUCT_DEFINITION_SHAPE ( 'NONE', 'NONE',  #104 ) ;
#221 = APPROVAL ( #101, 'UNSPECIFIED' ) ;
#222 = DIRECTION ( 'NONE',  ( 0.0000000000000000000, 1.000000000000000000, 0.0000000000000000000 ) ) ;
#223 = AXIS2_PLACEMENT_3D ( 'NONE', #99, #58, #238 ) ;
#224 = EDGE_LOOP ( 'NONE', ( #49 ) ) ;
#225 = ORIENTED_EDGE ( 'NONE', *, *, #27, .T. ) ;
#226 = CC_DESIGN_DATE_AND_TIME_ASSIGNMENT ( #239, #175, ( #104 ) ) ;
#227 = CIRCLE ( 'NONE', #144, 4.711324865405186024 ) ;
#228 = DIRECTION ( 'NONE',  ( -2.465190328815668198E-30, 1.000000000000000000, -6.938893903907246127E-16 ) ) ;
#229 = PLANE ( 'NONE',  #63 ) ;
#230 = DIRECTION ( 'NONE',  ( 2.221575396987081551E-30, -1.000000000000000000, 6.362844825409199296E-16 ) ) ;
#231 = CC_DESIGN_PERSON_AND_ORGANIZATION_ASSIGNMENT ( #172, #177, ( #104 ) ) ;
#232 = FACE_OUTER_BOUND ( 'NONE', #124, .T. ) ;
#233 = UNCERTAINTY_MEASURE_WITH_UNIT (LENGTH_MEASURE( 1.000000000000000082E-05 ), #137, 'distance_accuracy_value', 'NONE');
#234 = FACE_OUTER_BOUND ( 'NONE', #186, .T. ) ;
#235 = APPLICATION_PROTOCOL_DEFINITION ( 'international standard', 'config_control_design', 1994, #67 ) ;
#236 = COORDINATED_UNIVERSAL_TIME_OFFSET ( 1, 0, .AHEAD. ) ;
#237 = CALENDAR_DATE ( 2021, 26, 11 ) ;
#238 = DIRECTION ( 'NONE',  ( 1.000000000000000000, 0.0000000000000000000, 0.0000000000000000000 ) ) ;
#239 = DATE_AND_TIME ( #59, #147 ) ;
#240 = CIRCLE ( 'NONE', #123, 2.400000000000011902 ) ;
#241 = CALENDAR_DATE ( 2021, 26, 11 ) ;
#242 = EDGE_CURVE ( 'NONE', #26, #26, #227, .T. ) ;
#243 = ORIENTED_EDGE ( 'NONE', *, *, #163, .F. ) ;
ENDSEC;
END-ISO-10303-21;
