ISO-10303-21;
HEADER;
FILE_DESCRIPTION (( 'STEP AP203' ),
    '1' );
FILE_NAME ('342020.step',
    '2021-11-26T06:34:20',
    ( '' ),
    ( '' ),
    'SwSTEP 2.0',
    'SolidWorks 2019',
    '' );
FILE_SCHEMA (( 'CONFIG_CONTROL_DESIGN' ));
ENDSEC;

DATA;
#1 =( NAMED_UNIT ( * ) SI_UNIT ( $, .STERADIAN. ) SOLID_ANGLE_UNIT ( ) );
#2 = DATE_AND_TIME ( #45, #142 ) ;
#3 = CC_DESIGN_PERSON_AND_ORGANIZATION_ASSIGNMENT ( #215, #88, ( #147 ) ) ;
#4 = APPLICATION_PROTOCOL_DEFINITION ( 'international standard', 'config_control_design', 1994, #185 ) ;
#5 = LOCAL_TIME ( 7, 34, 20.00000000000000000, #119 ) ;
#6 = DIRECTION ( 'NONE',  ( -3.491481338843133355E-15, 1.224646799147353454E-16, -1.000000000000000000 ) ) ;
#7 = PERSON_AND_ORGANIZATION_ROLE ( 'design_owner' ) ;
#8 = CARTESIAN_POINT ( 'NONE',  ( 0.0000000000000000000, 0.0000000000000000000, 0.0000000000000000000 ) ) ;
#9 = PERSON_AND_ORGANIZATION_ROLE ( 'design_supplier' ) ;
#10 = CARTESIAN_POINT ( 'NONE',  ( 1.745740669421577130E-15, 3.114401899197401116E-16, 0.5000000000000029976 ) ) ;
#11 = LOCAL_TIME ( 7, 34, 20.00000000000000000, #212 ) ;
#12 = DIRECTION ( 'NONE',  ( 0.0000000000000000000, 1.000000000000000000, 0.0000000000000000000 ) ) ;
#13 = PLANE ( 'NONE',  #153 ) ;
#14 = ORIENTED_EDGE ( 'NONE', *, *, #136, .T. ) ;
#15 = DIRECTION ( 'NONE',  ( 3.491481338843133355E-15, 6.228803798394764762E-16, 1.000000000000000000 ) ) ;
#16 = CARTESIAN_POINT ( 'NONE',  ( 4.064084278413407478E-13, 2.999999999999997335, 116.4000000000000057 ) ) ;
#17 = ORIENTED_EDGE ( 'NONE', *, *, #219, .F. ) ;
#18 = DIRECTION ( 'NONE',  ( 0.0000000000000000000, 1.000000000000000000, 0.0000000000000000000 ) ) ;
#19 = CARTESIAN_POINT ( 'NONE',  ( 5.764769122789385493E-14, 4.854999999999998650, 16.51095498823282526 ) ) ;
#20 = DIRECTION ( 'NONE',  ( -2.142125993757173291E-30, 1.000000000000000000, -6.252865258412798096E-16 ) ) ;
#21 = EDGE_CURVE ( 'NONE', #60, #60, #123, .T. ) ;
#22 = COORDINATED_UNIVERSAL_TIME_OFFSET ( 1, 0, .AHEAD. ) ;
#23 = PLANE ( 'NONE',  #29 ) ;
#24 = DATE_AND_TIME ( #62, #80 ) ;
#25 = CC_DESIGN_PERSON_AND_ORGANIZATION_ASSIGNMENT ( #202, #179, ( #140 ) ) ;
#26 = AXIS2_PLACEMENT_3D ( 'NONE', #235, #196, #87 ) ;
#27 = DIRECTION ( 'NONE',  ( 0.0000000000000000000, 1.000000000000000000, 0.0000000000000000000 ) ) ;
#28 = CIRCLE ( 'NONE', #93, 2.400000000000011902 ) ;
#29 = AXIS2_PLACEMENT_3D ( 'NONE', #190, #40, #167 ) ;
#30 = CIRCLE ( 'NONE', #168, 2.999999999999988454 ) ;
#31 = EDGE_LOOP ( 'NONE', ( #129 ) ) ;
#32 = ORIENTED_EDGE ( 'NONE', *, *, #104, .F. ) ;
#33 = ADVANCED_FACE ( 'NONE', ( #92, #72 ), #49, .T. ) ;
#34 = FACE_OUTER_BOUND ( 'NONE', #151, .T. ) ;
#35 = LOCAL_TIME ( 7, 34, 20.00000000000000000, #22 ) ;
#36 = CARTESIAN_POINT ( 'NONE',  ( 4.085033166446466404E-13, 2.399999999999997691, 117.0000000000000000 ) ) ;
#37 = DIRECTION ( 'NONE',  ( 2.174775222541054523E-30, -1.000000000000000000, 6.228803798394765748E-16 ) ) ;
#38 = CC_DESIGN_DATE_AND_TIME_ASSIGNMENT ( #65, #211, ( #147 ) ) ;
#39 =( LENGTH_UNIT ( ) NAMED_UNIT ( * ) SI_UNIT ( .MILLI., .METRE. ) );
#40 = DIRECTION ( 'NONE',  ( 3.491481338843133355E-15, -1.224646799147353454E-16, 1.000000000000000000 ) ) ;
#41 = DIRECTION ( 'NONE',  ( 0.0000000000000000000, 0.0000000000000000000, 1.000000000000000000 ) ) ;
#42 = COORDINATED_UNIVERSAL_TIME_OFFSET ( 1, 0, .AHEAD. ) ;
#43 = DATE_AND_TIME ( #176, #11 ) ;
#44 = FACE_BOUND ( 'NONE', #220, .T. ) ;
#45 = CALENDAR_DATE ( 2021, 26, 11 ) ;
#46 = ADVANCED_FACE ( 'NONE', ( #182 ), #13, .T. ) ;
#47 = CARTESIAN_POINT ( 'NONE',  ( 0.0000000000000000000, 0.0000000000000000000, 0.0000000000000000000 ) ) ;
#48 = CC_DESIGN_PERSON_AND_ORGANIZATION_ASSIGNMENT ( #157, #234, ( #89 ) ) ;
#49 = CONICAL_SURFACE ( 'NONE', #243, 4.566324865405186451, 0.5235987755982975944 ) ;
#50 = AXIS2_PLACEMENT_3D ( 'NONE', #47, #41, #166 ) ;
#51 = EDGE_CURVE ( 'NONE', #102, #102, #28, .T. ) ;
#52 = FACE_OUTER_BOUND ( 'NONE', #144, .T. ) ;
#53 = CARTESIAN_POINT ( 'NONE',  ( 1.745740669421566678E-15, 4.854999999999998650, 0.5000000000000000000 ) ) ;
#54 = DATE_TIME_ROLE ( 'classification_date' ) ;
#55 = EDGE_LOOP ( 'NONE', ( #163 ) ) ;
#56 = DESIGN_CONTEXT ( 'detailed design', #113, 'design' ) ;
#57 = ADVANCED_FACE ( 'NONE', ( #95, #206 ), #192, .T. ) ;
#58 = DIRECTION ( 'NONE',  ( -3.491481338843133355E-15, 1.224646799147353454E-16, -1.000000000000000000 ) ) ;
#59 = DIRECTION ( 'NONE',  ( -2.538815992601099448E-30, 1.000000000000000000, -7.146131723900354627E-16 ) ) ;
#60 = VERTEX_POINT ( 'NONE', #155 ) ;
#61 = FACE_OUTER_BOUND ( 'NONE', #133, .T. ) ;
#62 = CALENDAR_DATE ( 2021, 26, 11 ) ;
#63 = CALENDAR_DATE ( 2021, 26, 11 ) ;
#64 = PERSON_AND_ORGANIZATION ( #141, #184 ) ;
#65 = DATE_AND_TIME ( #143, #35 ) ;
#66 = CIRCLE ( 'NONE', #161, 4.855000000000000426 ) ;
#67 = APPROVAL_DATE_TIME ( #43, #125 ) ;
#68 = PRODUCT ( '342020', '342020', '', ( #79 ) ) ;
#69 = CC_DESIGN_APPROVAL ( #74, ( #140 ) ) ;
#70 = ADVANCED_FACE ( 'NONE', ( #61 ), #23, .T. ) ;
#71 = ORIENTED_EDGE ( 'NONE', *, *, #180, .F. ) ;
#72 = FACE_BOUND ( 'NONE', #200, .T. ) ;
#73 = CARTESIAN_POINT ( 'NONE',  ( 0.0000000000000000000, 0.0000000000000000000, 0.0000000000000000000 ) ) ;
#74 = APPROVAL ( #173, 'UNSPECIFIED' ) ;
#75 = ORIENTED_EDGE ( 'NONE', *, *, #51, .F. ) ;
#76 = DIRECTION ( 'NONE',  ( -3.491481338843133355E-15, -6.228803798394764762E-16, -1.000000000000000000 ) ) ;
#77 = APPROVAL_DATE_TIME ( #2, #74 ) ;
#78 = ORIENTED_EDGE ( 'NONE', *, *, #217, .T. ) ;
#79 = MECHANICAL_CONTEXT ( 'NONE', #185, 'mechanical' ) ;
#80 = LOCAL_TIME ( 7, 34, 20.00000000000000000, #83 ) ;
#81 = DIRECTION ( 'NONE',  ( -3.491481338843133355E-15, -6.228803798394764762E-16, -1.000000000000000000 ) ) ;
#82 = CARTESIAN_POINT ( 'NONE',  ( 4.085033166446466404E-13, -1.432836755002403758E-14, 117.0000000000000000 ) ) ;
#83 = COORDINATED_UNIVERSAL_TIME_OFFSET ( 1, 0, .AHEAD. ) ;
#84 = DIRECTION ( 'NONE',  ( -3.491481338843133355E-15, 1.224646799147353454E-16, -1.000000000000000000 ) ) ;
#85 = AXIS2_PLACEMENT_3D ( 'NONE', #160, #76, #232 ) ;
#86 = MANIFOLD_SOLID_BREP ( 'Corps-Déplacer/Copier1[1]', #230 ) ;
#87 = DIRECTION ( 'NONE',  ( 0.0000000000000000000, 1.000000000000000000, 0.0000000000000000000 ) ) ;
#88 = PERSON_AND_ORGANIZATION_ROLE ( 'creator' ) ;
#89 = PRODUCT_DEFINITION_FORMATION_WITH_SPECIFIED_SOURCE ( 'ANY', '', #68, .NOT_KNOWN. ) ;
#90 = CARTESIAN_POINT ( 'NONE',  ( 5.764769122789384230E-14, 4.854999999999998650, 16.51095498823282171 ) ) ;
#91 = EDGE_LOOP ( 'NONE', ( #78 ) ) ;
#92 = FACE_OUTER_BOUND ( 'NONE', #183, .T. ) ;
#93 = AXIS2_PLACEMENT_3D ( 'NONE', #82, #84, #18 ) ;
#94 = ORIENTED_EDGE ( 'NONE', *, *, #180, .T. ) ;
#95 = FACE_OUTER_BOUND ( 'NONE', #110, .T. ) ;
#96 = APPROVAL_PERSON_ORGANIZATION ( #210, #74, #132 ) ;
#97 = DIRECTION ( 'NONE',  ( -3.491481338843133355E-15, -6.228803798394764762E-16, -1.000000000000000000 ) ) ;
#98 = CARTESIAN_POINT ( 'NONE',  ( 4.064084278413407478E-13, -1.425488874207519270E-14, 116.4000000000000057 ) ) ;
#99 = APPROVAL_DATE_TIME ( #24, #216 ) ;
#100 = CONICAL_SURFACE ( 'NONE', #152, 4.855000000000000426, 0.5235987755982930425 ) ;
#101 = VERTEX_POINT ( 'NONE', #225 ) ;
#102 = VERTEX_POINT ( 'NONE', #36 ) ;
#103 =( GEOMETRIC_REPRESENTATION_CONTEXT ( 3 ) GLOBAL_UNCERTAINTY_ASSIGNED_CONTEXT ( ( #130 ) ) GLOBAL_UNIT_ASSIGNED_CONTEXT ( ( #39, #111, #1 ) ) REPRESENTATION_CONTEXT ( 'NONE', 'WORKASPACE' ) );
#104 = EDGE_CURVE ( 'NONE', #101, #101, #66, .T. ) ;
#105 = DIRECTION ( 'NONE',  ( -2.174775222541054873E-30, 1.000000000000000000, -6.228803798394765748E-16 ) ) ;
#106 = DIRECTION ( 'NONE',  ( -3.491481338843133355E-15, -6.228803798394764762E-16, -1.000000000000000000 ) ) ;
#107 = PRODUCT_RELATED_PRODUCT_CATEGORY ( 'detail', '', ( #68 ) ) ;
#108 = AXIS2_PLACEMENT_3D ( 'NONE', #98, #233, #117 ) ;
#109 = CARTESIAN_POINT ( 'NONE',  ( 6.886566102748345277E-14, 2.999999999999985789, 19.72390923627315829 ) ) ;
#110 = EDGE_LOOP ( 'NONE', ( #14 ) ) ;
#111 =( NAMED_UNIT ( * ) PLANE_ANGLE_UNIT ( ) SI_UNIT ( $, .RADIAN. ) );
#112 = CARTESIAN_POINT ( 'NONE',  ( 5.764769122789384230E-14, 1.028434991458296077E-14, 16.51095498823282171 ) ) ;
#113 = APPLICATION_CONTEXT ( 'configuration controlled 3d designs of mechanical parts and assemblies' ) ;
#114 = CARTESIAN_POINT ( 'NONE',  ( 5.764769122789386755E-14, 1.028434991458296393E-14, 16.51095498823282881 ) ) ;
#115 = APPLICATION_PROTOCOL_DEFINITION ( 'international standard', 'config_control_design', 1994, #113 ) ;
#116 = DATE_AND_TIME ( #63, #5 ) ;
#117 = DIRECTION ( 'NONE',  ( 0.0000000000000000000, 1.000000000000000000, 0.0000000000000000000 ) ) ;
#118 = APPROVAL_ROLE ( '' ) ;
#119 = COORDINATED_UNIVERSAL_TIME_OFFSET ( 1, 0, .AHEAD. ) ;
#120 = PERSON_AND_ORGANIZATION ( #141, #184 ) ;
#121 = CIRCLE ( 'NONE', #26, 3.000000000000011990 ) ;
#122 = DIRECTION ( 'NONE',  ( -3.491481338843133355E-15, 1.224646799147353454E-16, -1.000000000000000000 ) ) ;
#123 = CIRCLE ( 'NONE', #208, 4.566324865405186451 ) ;
#124 = APPROVAL_STATUS ( 'not_yet_approved' ) ;
#125 = APPROVAL ( #124, 'UNSPECIFIED' ) ;
#126 = ORIENTED_EDGE ( 'NONE', *, *, #51, .T. ) ;
#127 = EDGE_LOOP ( 'NONE', ( #71 ) ) ;
#128 = DIRECTION ( 'NONE',  ( 4.275831445896959482E-31, 1.000000000000000000, 1.224646799147353700E-16 ) ) ;
#129 = ORIENTED_EDGE ( 'NONE', *, *, #219, .T. ) ;
#130 = UNCERTAINTY_MEASURE_WITH_UNIT (LENGTH_MEASURE( 1.000000000000000082E-05 ), #39, 'distance_accuracy_value', 'NONE');
#131 = CONICAL_SURFACE ( 'NONE', #108, 3.000000000000011990, 0.7853981633974453924 ) ;
#132 = APPROVAL_ROLE ( '' ) ;
#133 = EDGE_LOOP ( 'NONE', ( #75 ) ) ;
#134 = VERTEX_POINT ( 'NONE', #53 ) ;
#135 = FACE_OUTER_BOUND ( 'NONE', #241, .T. ) ;
#136 = EDGE_CURVE ( 'NONE', #138, #138, #236, .T. ) ;
#137 = DIRECTION ( 'NONE',  ( 2.174775222541054873E-30, -1.000000000000000000, 6.228803798394764762E-16 ) ) ;
#138 = VERTEX_POINT ( 'NONE', #19 ) ;
#139 = ADVANCED_FACE ( 'NONE', ( #170 ), #156, .T. ) ;
#140 = SECURITY_CLASSIFICATION ( '', '', #164 ) ;
#141 = PERSON ( 'UNSPECIFIED', 'UNSPECIFIED', 'UNSPECIFIED', ('UNSPECIFIED'), ('UNSPECIFIED'), ('UNSPECIFIED') ) ;
#142 = LOCAL_TIME ( 7, 34, 20.00000000000000000, #42 ) ;
#143 = CALENDAR_DATE ( 2021, 26, 11 ) ;
#144 = EDGE_LOOP ( 'NONE', ( #221 ) ) ;
#145 = CARTESIAN_POINT ( 'NONE',  ( 9.552183010079684205E-30, 1.704109747178558678E-30, 2.735853949385478688E-15 ) ) ;
#146 = CARTESIAN_POINT ( 'NONE',  ( 5.764769122789385493E-14, -2.022008817720536035E-15, 16.51095498823282526 ) ) ;
#147 = PRODUCT_DEFINITION ( 'UNKNOWN', '', #89, #56 ) ;
#148 = AXIS2_PLACEMENT_3D ( 'NONE', #8, #81, #194 ) ;
#149 = CYLINDRICAL_SURFACE ( 'NONE', #174, 3.000000000000000000 ) ;
#150 = SHAPE_DEFINITION_REPRESENTATION ( #226, #238 ) ;
#151 = EDGE_LOOP ( 'NONE', ( #32 ) ) ;
#152 = AXIS2_PLACEMENT_3D ( 'NONE', #146, #222, #12 ) ;
#153 = AXIS2_PLACEMENT_3D ( 'NONE', #90, #162, #231 ) ;
#154 = DIRECTION ( 'NONE',  ( 0.0000000000000000000, 1.000000000000000000, 0.0000000000000000000 ) ) ;
#155 = CARTESIAN_POINT ( 'NONE',  ( -3.785471652766322713E-31, 4.566324865405186451, -1.084202172485504434E-16 ) ) ;
#156 = PLANE ( 'NONE',  #237 ) ;
#157 = PERSON_AND_ORGANIZATION ( #141, #184 ) ;
#158 = CARTESIAN_POINT ( 'NONE',  ( 5.764769122789385493E-14, -2.022008817720536035E-15, 16.51095498823282526 ) ) ;
#159 = APPROVAL_ROLE ( '' ) ;
#160 = CARTESIAN_POINT ( 'NONE',  ( -5.154638670316474330E-30, 4.566324865405186451, -1.476347191941289788E-15 ) ) ;
#161 = AXIS2_PLACEMENT_3D ( 'NONE', #158, #6, #154 ) ;
#162 = DIRECTION ( 'NONE',  ( -3.491481338843133355E-15, 1.224646799147353454E-16, -1.000000000000000000 ) ) ;
#163 = ORIENTED_EDGE ( 'NONE', *, *, #217, .F. ) ;
#164 = SECURITY_CLASSIFICATION_LEVEL ( 'unclassified' ) ;
#165 = FACE_OUTER_BOUND ( 'NONE', #31, .T. ) ;
#166 = DIRECTION ( 'NONE',  ( 1.000000000000000000, 0.0000000000000000000, 0.0000000000000000000 ) ) ;
#167 = DIRECTION ( 'NONE',  ( -4.275831445896959482E-31, -1.000000000000000000, -1.224646799147353454E-16 ) ) ;
#168 = AXIS2_PLACEMENT_3D ( 'NONE', #189, #122, #27 ) ;
#169 = VERTEX_POINT ( 'NONE', #109 ) ;
#170 = FACE_OUTER_BOUND ( 'NONE', #188, .T. ) ;
#171 = DIRECTION ( 'NONE',  ( -3.491481338843133355E-15, -6.228803798394764762E-16, -1.000000000000000000 ) ) ;
#172 = CC_DESIGN_DATE_AND_TIME_ASSIGNMENT ( #116, #54, ( #140 ) ) ;
#173 = APPROVAL_STATUS ( 'not_yet_approved' ) ;
#174 = AXIS2_PLACEMENT_3D ( 'NONE', #73, #58, #128 ) ;
#175 = PERSON_AND_ORGANIZATION ( #141, #184 ) ;
#176 = CALENDAR_DATE ( 2021, 26, 11 ) ;
#177 = FACE_OUTER_BOUND ( 'NONE', #55, .T. ) ;
#178 = ADVANCED_FACE ( 'NONE', ( #44, #135 ), #131, .T. ) ;
#179 = PERSON_AND_ORGANIZATION_ROLE ( 'classification_officer' ) ;
#180 = EDGE_CURVE ( 'NONE', #134, #134, #227, .T. ) ;
#181 = APPROVAL_PERSON_ORGANIZATION ( #120, #216, #159 ) ;
#182 = FACE_OUTER_BOUND ( 'NONE', #224, .T. ) ;
#183 = EDGE_LOOP ( 'NONE', ( #94 ) ) ;
#184 = ORGANIZATION ( 'UNSPECIFIED', 'UNSPECIFIED', '' ) ;
#185 = APPLICATION_CONTEXT ( 'configuration controlled 3d designs of mechanical parts and assemblies' ) ;
#186 = ORIENTED_EDGE ( 'NONE', *, *, #104, .T. ) ;
#187 = VERTEX_POINT ( 'NONE', #16 ) ;
#188 = EDGE_LOOP ( 'NONE', ( #205 ) ) ;
#189 = CARTESIAN_POINT ( 'NONE',  ( 6.886566102748345277E-14, -2.415482231287484450E-15, 19.72390923627315829 ) ) ;
#190 = CARTESIAN_POINT ( 'NONE',  ( 4.085033166446466404E-13, -1.432836755002403442E-14, 117.0000000000000000 ) ) ;
#191 = PERSON_AND_ORGANIZATION ( #141, #184 ) ;
#192 = CYLINDRICAL_SURFACE ( 'NONE', #148, 4.854999999999994209 ) ;
#193 = PLANE ( 'NONE',  #85 ) ;
#194 = DIRECTION ( 'NONE',  ( -2.174775222541054523E-30, 1.000000000000000000, -6.228803798394763776E-16 ) ) ;
#195 = CC_DESIGN_APPROVAL ( #125, ( #147 ) ) ;
#196 = DIRECTION ( 'NONE',  ( -3.491481338843133355E-15, 1.224646799147353454E-16, -1.000000000000000000 ) ) ;
#197 = ADVANCED_FACE ( 'NONE', ( #165, #177 ), #149, .T. ) ;
#198 = CLOSED_SHELL ( 'NONE', ( #139, #57, #33, #229 ) ) ;
#199 = CC_DESIGN_PERSON_AND_ORGANIZATION_ASSIGNMENT ( #191, #7, ( #68 ) ) ;
#200 = EDGE_LOOP ( 'NONE', ( #201 ) ) ;
#201 = ORIENTED_EDGE ( 'NONE', *, *, #21, .F. ) ;
#202 = PERSON_AND_ORGANIZATION ( #141, #184 ) ;
#203 = FACE_BOUND ( 'NONE', #91, .T. ) ;
#204 = AXIS2_PLACEMENT_3D ( 'NONE', #10, #171, #20 ) ;
#205 = ORIENTED_EDGE ( 'NONE', *, *, #136, .F. ) ;
#206 = FACE_OUTER_BOUND ( 'NONE', #127, .T. ) ;
#207 = DIRECTION ( 'NONE',  ( 3.491481338843133355E-15, 6.228803798394764762E-16, 1.000000000000000000 ) ) ;
#208 = AXIS2_PLACEMENT_3D ( 'NONE', #228, #106, #105 ) ;
#209 = ADVANCED_FACE ( 'NONE', ( #203, #34 ), #100, .T. ) ;
#210 = PERSON_AND_ORGANIZATION ( #141, #184 ) ;
#211 = DATE_TIME_ROLE ( 'creation_date' ) ;
#212 = COORDINATED_UNIVERSAL_TIME_OFFSET ( 1, 0, .AHEAD. ) ;
#213 = CC_DESIGN_APPROVAL ( #216, ( #89 ) ) ;
#214 = APPROVAL_STATUS ( 'not_yet_approved' ) ;
#215 = PERSON_AND_ORGANIZATION ( #141, #184 ) ;
#216 = APPROVAL ( #214, 'UNSPECIFIED' ) ;
#217 = EDGE_CURVE ( 'NONE', #169, #169, #30, .T. ) ;
#218 = APPROVAL_PERSON_ORGANIZATION ( #175, #125, #118 ) ;
#219 = EDGE_CURVE ( 'NONE', #187, #187, #121, .T. ) ;
#220 = EDGE_LOOP ( 'NONE', ( #126 ) ) ;
#221 = ORIENTED_EDGE ( 'NONE', *, *, #21, .T. ) ;
#222 = DIRECTION ( 'NONE',  ( -3.491481338843133355E-15, 1.224646799147353454E-16, -1.000000000000000000 ) ) ;
#223 = CC_DESIGN_PERSON_AND_ORGANIZATION_ASSIGNMENT ( #64, #9, ( #89 ) ) ;
#224 = EDGE_LOOP ( 'NONE', ( #186 ) ) ;
#225 = CARTESIAN_POINT ( 'NONE',  ( 5.764769122789385493E-14, 4.854999999999998650, 16.51095498823282526 ) ) ;
#226 = PRODUCT_DEFINITION_SHAPE ( 'NONE', 'NONE',  #147 ) ;
#227 = CIRCLE ( 'NONE', #204, 4.854999999999998650 ) ;
#228 = CARTESIAN_POINT ( 'NONE',  ( 9.552183010079684205E-30, 1.704109747178558678E-30, 2.735853949385478688E-15 ) ) ;
#229 = ADVANCED_FACE ( 'NONE', ( #52 ), #193, .T. ) ;
#230 = CLOSED_SHELL ( 'NONE', ( #70, #178, #197, #209, #46 ) ) ;
#231 = DIRECTION ( 'NONE',  ( 4.275831445896959482E-31, 1.000000000000000000, 1.224646799147353454E-16 ) ) ;
#232 = DIRECTION ( 'NONE',  ( -2.174775222541054873E-30, 1.000000000000000000, -6.228803798394764762E-16 ) ) ;
#233 = DIRECTION ( 'NONE',  ( -3.491481338843133355E-15, 1.224646799147353454E-16, -1.000000000000000000 ) ) ;
#234 = PERSON_AND_ORGANIZATION_ROLE ( 'creator' ) ;
#235 = CARTESIAN_POINT ( 'NONE',  ( 4.064084278413407478E-13, -1.425488874207519270E-14, 116.4000000000000057 ) ) ;
#236 = CIRCLE ( 'NONE', #239, 4.854999999999988880 ) ;
#237 = AXIS2_PLACEMENT_3D ( 'NONE', #112, #207, #137 ) ;
#238 = ADVANCED_BREP_SHAPE_REPRESENTATION ( '342020', ( #86, #240, #50 ), #103 ) ;
#239 = AXIS2_PLACEMENT_3D ( 'NONE', #114, #97, #59 ) ;
#240 = MANIFOLD_SOLID_BREP ( 'Corps-Déplacer/Copier1[2]', #198 ) ;
#241 = EDGE_LOOP ( 'NONE', ( #17 ) ) ;
#242 = CC_DESIGN_SECURITY_CLASSIFICATION ( #140, ( #89 ) ) ;
#243 = AXIS2_PLACEMENT_3D ( 'NONE', #145, #15, #37 ) ;
ENDSEC;
END-ISO-10303-21;
