ISO-10303-21;
HEADER;
FILE_DESCRIPTION (( 'STEP AP203' ),
    '1' );
FILE_NAME ('342000.step',
    '2021-11-26T06:34:19',
    ( '' ),
    ( '' ),
    'SwSTEP 2.0',
    'SolidWorks 2019',
    '' );
FILE_SCHEMA (( 'CONFIG_CONTROL_DESIGN' ));
ENDSEC;

DATA;
#1 = FACE_OUTER_BOUND ( 'NONE', #166, .T. ) ;
#2 = LOCAL_TIME ( 7, 34, 19.00000000000000000, #125 ) ;
#3 = ADVANCED_FACE ( 'NONE', ( #234, #44 ), #117, .T. ) ;
#4 = PRODUCT_RELATED_PRODUCT_CATEGORY ( 'detail', '', ( #140 ) ) ;
#5 = FACE_BOUND ( 'NONE', #87, .T. ) ;
#6 = LOCAL_TIME ( 7, 34, 19.00000000000000000, #10 ) ;
#7 = CARTESIAN_POINT ( 'NONE',  ( 1.745740669421576736E-15, 3.069356462262173316E-16, 0.5000000000000028866 ) ) ;
#8 = CARTESIAN_POINT ( 'NONE',  ( -3.785471652766309138E-31, 4.466324865405185918, -1.084202172485504434E-16 ) ) ;
#9 = FACE_OUTER_BOUND ( 'NONE', #30, .T. ) ;
#10 = COORDINATED_UNIVERSAL_TIME_OFFSET ( 1, 0, .AHEAD. ) ;
#11 = EDGE_LOOP ( 'NONE', ( #21 ) ) ;
#12 = PERSON ( 'UNSPECIFIED', 'UNSPECIFIED', 'UNSPECIFIED', ('UNSPECIFIED'), ('UNSPECIFIED'), ('UNSPECIFIED') ) ;
#13 = SECURITY_CLASSIFICATION ( '', '', #54 ) ;
#14 = PERSON_AND_ORGANIZATION ( #12, #155 ) ;
#15 = APPROVAL_DATE_TIME ( #182, #128 ) ;
#16 = AXIS2_PLACEMENT_3D ( 'NONE', #27, #233, #104 ) ;
#17 = FACE_BOUND ( 'NONE', #197, .T. ) ;
#18 = CLOSED_SHELL ( 'NONE', ( #139, #202, #48, #158 ) ) ;
#19 = DIRECTION ( 'NONE',  ( -2.143320162049178814E-30, 1.000000000000000000, -6.138712924524311134E-16 ) ) ;
#20 = CC_DESIGN_PERSON_AND_ORGANIZATION_ASSIGNMENT ( #142, #120, ( #25 ) ) ;
#21 = ORIENTED_EDGE ( 'NONE', *, *, #229, .T. ) ;
#22 = CARTESIAN_POINT ( 'NONE',  ( 5.825243353514936841E-14, 4.754999999999998117, 16.68416006898971915 ) ) ;
#23 = AXIS2_PLACEMENT_3D ( 'NONE', #24, #98, #101 ) ;
#24 = CARTESIAN_POINT ( 'NONE',  ( 6.886566102748345277E-14, -2.415482231287484450E-15, 19.72390923627315829 ) ) ;
#25 = PRODUCT_DEFINITION ( 'UNKNOWN', '', #160, #185 ) ;
#26 = DIRECTION ( 'NONE',  ( 0.0000000000000000000, 1.000000000000000000, 0.0000000000000000000 ) ) ;
#27 = CARTESIAN_POINT ( 'NONE',  ( 9.194216969007888003E-30, 1.616524708599201511E-30, 2.633328400390161560E-15 ) ) ;
#28 = COORDINATED_UNIVERSAL_TIME_OFFSET ( 1, 0, .AHEAD. ) ;
#29 = CALENDAR_DATE ( 2021, 26, 11 ) ;
#30 = EDGE_LOOP ( 'NONE', ( #148 ) ) ;
#31 = APPROVAL_ROLE ( '' ) ;
#32 = ORIENTED_EDGE ( 'NONE', *, *, #75, .F. ) ;
#33 = COORDINATED_UNIVERSAL_TIME_OFFSET ( 1, 0, .AHEAD. ) ;
#34 = CONICAL_SURFACE ( 'NONE', #56, 3.000000000000011990, 0.7853981633974453924 ) ;
#35 = APPROVAL_PERSON_ORGANIZATION ( #52, #175, #72 ) ;
#36 = DIRECTION ( 'NONE',  ( -3.491481338843133355E-15, 1.224646799147353454E-16, -1.000000000000000000 ) ) ;
#37 = EDGE_CURVE ( 'NONE', #115, #115, #71, .T. ) ;
#38 = UNCERTAINTY_MEASURE_WITH_UNIT (LENGTH_MEASURE( 1.000000000000000082E-05 ), #213, 'distance_accuracy_value', 'NONE');
#39 = CONICAL_SURFACE ( 'NONE', #208, 4.466324865405185918, 0.5235987755982975944 ) ;
#40 = PLANE ( 'NONE',  #152 ) ;
#41 = ORIENTED_EDGE ( 'NONE', *, *, #226, .F. ) ;
#42 = FACE_OUTER_BOUND ( 'NONE', #84, .T. ) ;
#43 = PLANE ( 'NONE',  #205 ) ;
#44 = FACE_OUTER_BOUND ( 'NONE', #53, .T. ) ;
#45 = AXIS2_PLACEMENT_3D ( 'NONE', #169, #187, #168 ) ;
#46 = DIRECTION ( 'NONE',  ( 2.143320162049178814E-30, -1.000000000000000000, 6.138712924524311134E-16 ) ) ;
#47 = DIRECTION ( 'NONE',  ( 4.275831445896959482E-31, 1.000000000000000000, 1.224646799147353700E-16 ) ) ;
#48 = ADVANCED_FACE ( 'NONE', ( #1, #130 ), #39, .T. ) ;
#49 = VERTEX_POINT ( 'NONE', #22 ) ;
#50 = PERSON_AND_ORGANIZATION ( #12, #155 ) ;
#51 = ORIENTED_EDGE ( 'NONE', *, *, #212, .T. ) ;
#52 = PERSON_AND_ORGANIZATION ( #12, #155 ) ;
#53 = EDGE_LOOP ( 'NONE', ( #146 ) ) ;
#54 = SECURITY_CLASSIFICATION_LEVEL ( 'unclassified' ) ;
#55 = APPROVAL_ROLE ( '' ) ;
#56 = AXIS2_PLACEMENT_3D ( 'NONE', #65, #80, #26 ) ;
#57 = EDGE_CURVE ( 'NONE', #156, #156, #97, .T. ) ;
#58 = AXIS2_PLACEMENT_3D ( 'NONE', #207, #36, #76 ) ;
#59 = CARTESIAN_POINT ( 'NONE',  ( 9.194216969007888003E-30, 1.616524708599201511E-30, 2.633328400390161560E-15 ) ) ;
#60 = ORIENTED_EDGE ( 'NONE', *, *, #195, .T. ) ;
#61 = CC_DESIGN_DATE_AND_TIME_ASSIGNMENT ( #238, #163, ( #25 ) ) ;
#62 = LOCAL_TIME ( 7, 34, 19.00000000000000000, #28 ) ;
#63 = ADVANCED_FACE ( 'NONE', ( #17, #204 ), #240, .T. ) ;
#64 = ORIENTED_EDGE ( 'NONE', *, *, #57, .T. ) ;
#65 = CARTESIAN_POINT ( 'NONE',  ( 4.064084278413407478E-13, -1.425488874207519270E-14, 116.4000000000000057 ) ) ;
#66 = DIRECTION ( 'NONE',  ( -4.275831445896959482E-31, -1.000000000000000000, -1.224646799147353454E-16 ) ) ;
#67 = CARTESIAN_POINT ( 'NONE',  ( 4.085033166446466404E-13, -1.432836755002403442E-14, 117.0000000000000000 ) ) ;
#68 = CARTESIAN_POINT ( 'NONE',  ( 0.0000000000000000000, 0.0000000000000000000, 0.0000000000000000000 ) ) ;
#69 = APPROVAL_STATUS ( 'not_yet_approved' ) ;
#70 = DATE_AND_TIME ( #29, #6 ) ;
#71 = CIRCLE ( 'NONE', #206, 3.000000000000011990 ) ;
#72 = APPROVAL_ROLE ( '' ) ;
#73 = EDGE_LOOP ( 'NONE', ( #41 ) ) ;
#74 = CARTESIAN_POINT ( 'NONE',  ( 0.0000000000000000000, 0.0000000000000000000, 0.0000000000000000000 ) ) ;
#75 = EDGE_CURVE ( 'NONE', #133, #133, #164, .T. ) ;
#76 = DIRECTION ( 'NONE',  ( 0.0000000000000000000, 1.000000000000000000, 0.0000000000000000000 ) ) ;
#77 = DIRECTION ( 'NONE',  ( 2.143320162049178814E-30, -1.000000000000000000, 6.138712924524311134E-16 ) ) ;
#78 = AXIS2_PLACEMENT_3D ( 'NONE', #74, #196, #176 ) ;
#79 = PRODUCT_DEFINITION_SHAPE ( 'NONE', 'NONE',  #25 ) ;
#80 = DIRECTION ( 'NONE',  ( -3.491481338843133355E-15, 1.224646799147353454E-16, -1.000000000000000000 ) ) ;
#81 = AXIS2_PLACEMENT_3D ( 'NONE', #114, #99, #46 ) ;
#82 = FACE_OUTER_BOUND ( 'NONE', #216, .T. ) ;
#83 = FACE_OUTER_BOUND ( 'NONE', #73, .T. ) ;
#84 = EDGE_LOOP ( 'NONE', ( #122 ) ) ;
#85 = MANIFOLD_SOLID_BREP ( 'Corps-Déplacer/Copier1[2]', #18 ) ;
#86 = CARTESIAN_POINT ( 'NONE',  ( 5.825243353514936841E-14, 4.754999999999998117, 16.68416006898971915 ) ) ;
#87 = EDGE_LOOP ( 'NONE', ( #64 ) ) ;
#88 = CC_DESIGN_APPROVAL ( #180, ( #25 ) ) ;
#89 = CARTESIAN_POINT ( 'NONE',  ( 5.825243353514938103E-14, 1.024192690503396532E-14, 16.68416006898972270 ) ) ;
#90 = EDGE_LOOP ( 'NONE', ( #32 ) ) ;
#91 = CALENDAR_DATE ( 2021, 26, 11 ) ;
#92 = CC_DESIGN_APPROVAL ( #175, ( #160 ) ) ;
#93 = PERSON_AND_ORGANIZATION_ROLE ( 'design_owner' ) ;
#94 = ORIENTED_EDGE ( 'NONE', *, *, #195, .F. ) ;
#95 = APPROVAL_STATUS ( 'not_yet_approved' ) ;
#96 = SHAPE_DEFINITION_REPRESENTATION ( #79, #184 ) ;
#97 = CIRCLE ( 'NONE', #58, 2.400000000000011902 ) ;
#98 = DIRECTION ( 'NONE',  ( -3.491481338843133355E-15, 1.224646799147353454E-16, -1.000000000000000000 ) ) ;
#99 = DIRECTION ( 'NONE',  ( 3.491481338843133355E-15, 6.138712924524311134E-16, 1.000000000000000000 ) ) ;
#100 = CIRCLE ( 'NONE', #228, 4.754999999999998117 ) ;
#101 = DIRECTION ( 'NONE',  ( 0.0000000000000000000, 1.000000000000000000, 0.0000000000000000000 ) ) ;
#102 = CARTESIAN_POINT ( 'NONE',  ( 4.064084278413407478E-13, 2.999999999999997335, 116.4000000000000057 ) ) ;
#103 = DIRECTION ( 'NONE',  ( -3.491481338843133355E-15, 1.224646799147353454E-16, -1.000000000000000000 ) ) ;
#104 = DIRECTION ( 'NONE',  ( -2.143320162049178814E-30, 1.000000000000000000, -6.138712924524311134E-16 ) ) ;
#105 = ORIENTED_EDGE ( 'NONE', *, *, #37, .F. ) ;
#106 = APPROVAL_DATE_TIME ( #224, #175 ) ;
#107 = ORIENTED_EDGE ( 'NONE', *, *, #226, .T. ) ;
#108 = CALENDAR_DATE ( 2021, 26, 11 ) ;
#109 = CC_DESIGN_PERSON_AND_ORGANIZATION_ASSIGNMENT ( #50, #93, ( #140 ) ) ;
#110 = CARTESIAN_POINT ( 'NONE',  ( 5.825243353514936841E-14, -2.043220322495034553E-15, 16.68416006898971915 ) ) ;
#111 = CC_DESIGN_PERSON_AND_ORGANIZATION_ASSIGNMENT ( #145, #222, ( #160 ) ) ;
#112 = DIRECTION ( 'NONE',  ( -3.491481338843133355E-15, 1.224646799147353454E-16, -1.000000000000000000 ) ) ;
#113 = LOCAL_TIME ( 7, 34, 19.00000000000000000, #33 ) ;
#114 = CARTESIAN_POINT ( 'NONE',  ( 5.825243353514936841E-14, 1.024192690503396374E-14, 16.68416006898971915 ) ) ;
#115 = VERTEX_POINT ( 'NONE', #102 ) ;
#116 = DIRECTION ( 'NONE',  ( 0.0000000000000000000, 1.000000000000000000, 0.0000000000000000000 ) ) ;
#117 = CYLINDRICAL_SURFACE ( 'NONE', #243, 3.000000000000000000 ) ;
#118 = PLANE ( 'NONE',  #81 ) ;
#119 = CARTESIAN_POINT ( 'NONE',  ( -4.975655649780576229E-30, 4.466324865405185918, -1.425084417443631223E-15 ) ) ;
#120 = PERSON_AND_ORGANIZATION_ROLE ( 'creator' ) ;
#121 = APPROVAL_PERSON_ORGANIZATION ( #162, #180, #31 ) ;
#122 = ORIENTED_EDGE ( 'NONE', *, *, #57, .F. ) ;
#123 = ADVANCED_FACE ( 'NONE', ( #42 ), #40, .T. ) ;
#124 = PERSON_AND_ORGANIZATION ( #12, #155 ) ;
#125 = COORDINATED_UNIVERSAL_TIME_OFFSET ( 1, 0, .AHEAD. ) ;
#126 = CLOSED_SHELL ( 'NONE', ( #123, #221, #3, #63, #153 ) ) ;
#127 = DIRECTION ( 'NONE',  ( 3.491481338843133355E-15, 6.138712924524311134E-16, 1.000000000000000000 ) ) ;
#128 = APPROVAL ( #95, 'UNSPECIFIED' ) ;
#129 = AXIS2_PLACEMENT_3D ( 'NONE', #193, #103, #116 ) ;
#130 = FACE_BOUND ( 'NONE', #199, .T. ) ;
#131 = DIRECTION ( 'NONE',  ( 0.0000000000000000000, 1.000000000000000000, 0.0000000000000000000 ) ) ;
#132 = ORIENTED_EDGE ( 'NONE', *, *, #37, .T. ) ;
#133 = VERTEX_POINT ( 'NONE', #188 ) ;
#134 = CC_DESIGN_PERSON_AND_ORGANIZATION_ASSIGNMENT ( #124, #178, ( #160 ) ) ;
#135 = DIRECTION ( 'NONE',  ( -2.106169444966063304E-30, 1.000000000000000000, -6.156353029886147636E-16 ) ) ;
#136 = FACE_OUTER_BOUND ( 'NONE', #223, .T. ) ;
#137 = DIRECTION ( 'NONE',  ( -3.491481338843133355E-15, 1.224646799147353454E-16, -1.000000000000000000 ) ) ;
#138 = CC_DESIGN_SECURITY_CLASSIFICATION ( #13, ( #160 ) ) ;
#139 = ADVANCED_FACE ( 'NONE', ( #136 ), #118, .T. ) ;
#140 = PRODUCT ( '342000', '342000', '', ( #144 ) ) ;
#141 = APPLICATION_PROTOCOL_DEFINITION ( 'international standard', 'config_control_design', 1994, #227 ) ;
#142 = PERSON_AND_ORGANIZATION ( #12, #155 ) ;
#143 = LOCAL_TIME ( 7, 34, 19.00000000000000000, #147 ) ;
#144 = MECHANICAL_CONTEXT ( 'NONE', #149, 'mechanical' ) ;
#145 = PERSON_AND_ORGANIZATION ( #12, #155 ) ;
#146 = ORIENTED_EDGE ( 'NONE', *, *, #212, .F. ) ;
#147 = COORDINATED_UNIVERSAL_TIME_OFFSET ( 1, 0, .AHEAD. ) ;
#148 = ORIENTED_EDGE ( 'NONE', *, *, #75, .T. ) ;
#149 = APPLICATION_CONTEXT ( 'configuration controlled 3d designs of mechanical parts and assemblies' ) ;
#150 = DIRECTION ( 'NONE',  ( 0.0000000000000000000, 1.000000000000000000, 0.0000000000000000000 ) ) ;
#151 = DIRECTION ( 'NONE',  ( -3.491481338843133355E-15, 1.224646799147353454E-16, -1.000000000000000000 ) ) ;
#152 = AXIS2_PLACEMENT_3D ( 'NONE', #67, #173, #66 ) ;
#153 = ADVANCED_FACE ( 'NONE', ( #9 ), #43, .T. ) ;
#154 = DIRECTION ( 'NONE',  ( -2.592208547650545272E-30, 1.000000000000000000, -7.296418405791006445E-16 ) ) ;
#155 = ORGANIZATION ( 'UNSPECIFIED', 'UNSPECIFIED', '' ) ;
#156 = VERTEX_POINT ( 'NONE', #172 ) ;
#157 = DIRECTION ( 'NONE',  ( 4.275831445896959482E-31, 1.000000000000000000, 1.224646799147353454E-16 ) ) ;
#158 = ADVANCED_FACE ( 'NONE', ( #209 ), #214, .T. ) ;
#159 = VERTEX_POINT ( 'NONE', #235 ) ;
#160 = PRODUCT_DEFINITION_FORMATION_WITH_SPECIFIED_SOURCE ( 'ANY', '', #140, .NOT_KNOWN. ) ;
#161 =( NAMED_UNIT ( * ) PLANE_ANGLE_UNIT ( ) SI_UNIT ( $, .RADIAN. ) );
#162 = PERSON_AND_ORGANIZATION ( #12, #155 ) ;
#163 = DATE_TIME_ROLE ( 'creation_date' ) ;
#164 = CIRCLE ( 'NONE', #129, 4.754999999999999893 ) ;
#165 = APPROVAL_DATE_TIME ( #70, #180 ) ;
#166 = EDGE_LOOP ( 'NONE', ( #107 ) ) ;
#167 = APPROVAL_STATUS ( 'not_yet_approved' ) ;
#168 = DIRECTION ( 'NONE',  ( -2.143320162049178814E-30, 1.000000000000000000, -6.138712924524310148E-16 ) ) ;
#169 = CARTESIAN_POINT ( 'NONE',  ( 0.0000000000000000000, 0.0000000000000000000, 0.0000000000000000000 ) ) ;
#170 = CC_DESIGN_APPROVAL ( #128, ( #13 ) ) ;
#171 = CC_DESIGN_DATE_AND_TIME_ASSIGNMENT ( #242, #181, ( #13 ) ) ;
#172 = CARTESIAN_POINT ( 'NONE',  ( 4.085033166446466404E-13, 2.399999999999997691, 117.0000000000000000 ) ) ;
#173 = DIRECTION ( 'NONE',  ( 3.491481338843133355E-15, -1.224646799147353454E-16, 1.000000000000000000 ) ) ;
#174 = CARTESIAN_POINT ( 'NONE',  ( 1.745740669421566678E-15, 4.754999999999998117, 0.5000000000000000000 ) ) ;
#175 = APPROVAL ( #167, 'UNSPECIFIED' ) ;
#176 = DIRECTION ( 'NONE',  ( 1.000000000000000000, 0.0000000000000000000, 0.0000000000000000000 ) ) ;
#177 = ORIENTED_EDGE ( 'NONE', *, *, #229, .F. ) ;
#178 = PERSON_AND_ORGANIZATION_ROLE ( 'creator' ) ;
#179 = AXIS2_PLACEMENT_3D ( 'NONE', #110, #151, #131 ) ;
#180 = APPROVAL ( #69, 'UNSPECIFIED' ) ;
#181 = DATE_TIME_ROLE ( 'classification_date' ) ;
#182 = DATE_AND_TIME ( #203, #2 ) ;
#183 = APPROVAL_PERSON_ORGANIZATION ( #14, #128, #55 ) ;
#184 = ADVANCED_BREP_SHAPE_REPRESENTATION ( '342000', ( #241, #85, #78 ), #225 ) ;
#185 = DESIGN_CONTEXT ( 'detailed design', #227, 'design' ) ;
#186 = CIRCLE ( 'NONE', #16, 4.466324865405185918 ) ;
#187 = DIRECTION ( 'NONE',  ( -3.491481338843133355E-15, -6.138712924524311134E-16, -1.000000000000000000 ) ) ;
#188 = CARTESIAN_POINT ( 'NONE',  ( 5.825243353514936841E-14, 4.754999999999998117, 16.68416006898971915 ) ) ;
#189 = DIRECTION ( 'NONE',  ( -3.491481338843133355E-15, -6.138712924524311134E-16, -1.000000000000000000 ) ) ;
#190 = CIRCLE ( 'NONE', #23, 2.999999999999988454 ) ;
#191 = FACE_OUTER_BOUND ( 'NONE', #11, .T. ) ;
#192 = CARTESIAN_POINT ( 'NONE',  ( 4.064084278413407478E-13, -1.425488874207519270E-14, 116.4000000000000057 ) ) ;
#193 = CARTESIAN_POINT ( 'NONE',  ( 5.825243353514936841E-14, -2.043220322495034553E-15, 16.68416006898971915 ) ) ;
#194 = VERTEX_POINT ( 'NONE', #174 ) ;
#195 = EDGE_CURVE ( 'NONE', #232, #232, #186, .T. ) ;
#196 = DIRECTION ( 'NONE',  ( 0.0000000000000000000, 0.0000000000000000000, 1.000000000000000000 ) ) ;
#197 = EDGE_LOOP ( 'NONE', ( #51 ) ) ;
#198 = CALENDAR_DATE ( 2021, 26, 11 ) ;
#199 = EDGE_LOOP ( 'NONE', ( #94 ) ) ;
#200 = PERSON_AND_ORGANIZATION_ROLE ( 'classification_officer' ) ;
#201 = AXIS2_PLACEMENT_3D ( 'NONE', #89, #231, #154 ) ;
#202 = ADVANCED_FACE ( 'NONE', ( #191, #83 ), #237, .T. ) ;
#203 = CALENDAR_DATE ( 2021, 26, 11 ) ;
#204 = FACE_OUTER_BOUND ( 'NONE', #90, .T. ) ;
#205 = AXIS2_PLACEMENT_3D ( 'NONE', #86, #211, #157 ) ;
#206 = AXIS2_PLACEMENT_3D ( 'NONE', #192, #112, #150 ) ;
#207 = CARTESIAN_POINT ( 'NONE',  ( 4.085033166446466404E-13, -1.432836755002403758E-14, 117.0000000000000000 ) ) ;
#208 = AXIS2_PLACEMENT_3D ( 'NONE', #59, #127, #77 ) ;
#209 = FACE_OUTER_BOUND ( 'NONE', #219, .T. ) ;
#210 = DIRECTION ( 'NONE',  ( -3.491481338843133355E-15, -6.138712924524311134E-16, -1.000000000000000000 ) ) ;
#211 = DIRECTION ( 'NONE',  ( -3.491481338843133355E-15, 1.224646799147353454E-16, -1.000000000000000000 ) ) ;
#212 = EDGE_CURVE ( 'NONE', #159, #159, #190, .T. ) ;
#213 =( LENGTH_UNIT ( ) NAMED_UNIT ( * ) SI_UNIT ( .MILLI., .METRE. ) );
#214 = PLANE ( 'NONE',  #218 ) ;
#215 = APPLICATION_PROTOCOL_DEFINITION ( 'international standard', 'config_control_design', 1994, #149 ) ;
#216 = EDGE_LOOP ( 'NONE', ( #105 ) ) ;
#217 = PERSON_AND_ORGANIZATION ( #12, #155 ) ;
#218 = AXIS2_PLACEMENT_3D ( 'NONE', #119, #189, #19 ) ;
#219 = EDGE_LOOP ( 'NONE', ( #60 ) ) ;
#220 = CC_DESIGN_PERSON_AND_ORGANIZATION_ASSIGNMENT ( #217, #200, ( #13 ) ) ;
#221 = ADVANCED_FACE ( 'NONE', ( #5, #82 ), #34, .T. ) ;
#222 = PERSON_AND_ORGANIZATION_ROLE ( 'design_supplier' ) ;
#223 = EDGE_LOOP ( 'NONE', ( #177 ) ) ;
#224 = DATE_AND_TIME ( #198, #62 ) ;
#225 =( GEOMETRIC_REPRESENTATION_CONTEXT ( 3 ) GLOBAL_UNCERTAINTY_ASSIGNED_CONTEXT ( ( #38 ) ) GLOBAL_UNIT_ASSIGNED_CONTEXT ( ( #213, #161, #239 ) ) REPRESENTATION_CONTEXT ( 'NONE', 'WORKASPACE' ) );
#226 = EDGE_CURVE ( 'NONE', #194, #194, #100, .T. ) ;
#227 = APPLICATION_CONTEXT ( 'configuration controlled 3d designs of mechanical parts and assemblies' ) ;
#228 = AXIS2_PLACEMENT_3D ( 'NONE', #7, #210, #135 ) ;
#229 = EDGE_CURVE ( 'NONE', #49, #49, #230, .T. ) ;
#230 = CIRCLE ( 'NONE', #201, 4.754999999999987459 ) ;
#231 = DIRECTION ( 'NONE',  ( -3.491481338843133355E-15, -6.138712924524311134E-16, -1.000000000000000000 ) ) ;
#232 = VERTEX_POINT ( 'NONE', #8 ) ;
#233 = DIRECTION ( 'NONE',  ( -3.491481338843133355E-15, -6.138712924524311134E-16, -1.000000000000000000 ) ) ;
#234 = FACE_OUTER_BOUND ( 'NONE', #236, .T. ) ;
#235 = CARTESIAN_POINT ( 'NONE',  ( 6.886566102748345277E-14, 2.999999999999985789, 19.72390923627315829 ) ) ;
#236 = EDGE_LOOP ( 'NONE', ( #132 ) ) ;
#237 = CYLINDRICAL_SURFACE ( 'NONE', #45, 4.754999999999992788 ) ;
#238 = DATE_AND_TIME ( #91, #143 ) ;
#239 =( NAMED_UNIT ( * ) SI_UNIT ( $, .STERADIAN. ) SOLID_ANGLE_UNIT ( ) );
#240 = CONICAL_SURFACE ( 'NONE', #179, 4.754999999999999893, 0.5235987755982932645 ) ;
#241 = MANIFOLD_SOLID_BREP ( 'Corps-Déplacer/Copier1[1]', #126 ) ;
#242 = DATE_AND_TIME ( #108, #113 ) ;
#243 = AXIS2_PLACEMENT_3D ( 'NONE', #68, #137, #47 ) ;
ENDSEC;
END-ISO-10303-21;
