ISO-10303-21;
HEADER;
FILE_DESCRIPTION (( 'STEP AP203' ),
    '1' );
FILE_NAME ('341980.step',
    '2021-11-26T06:34:19',
    ( '' ),
    ( '' ),
    'SwSTEP 2.0',
    'SolidWorks 2019',
    '' );
FILE_SCHEMA (( 'CONFIG_CONTROL_DESIGN' ));
ENDSEC;

DATA;
#1 = DIRECTION ( 'NONE',  ( 3.491481338843133355E-15, -1.224646799147353454E-16, 1.000000000000000000 ) ) ;
#2 = CARTESIAN_POINT ( 'NONE',  ( 5.885717584240488190E-14, 4.654999999999998472, 16.85736514974660949 ) ) ;
#3 = AXIS2_PLACEMENT_3D ( 'NONE', #14, #164, #58 ) ;
#4 = ADVANCED_FACE ( 'NONE', ( #235 ), #136, .T. ) ;
#5 = DIRECTION ( 'NONE',  ( 3.491481338843133355E-15, 6.050473371657535470E-16, 1.000000000000000000 ) ) ;
#6 = CIRCLE ( 'NONE', #185, 3.000000000000011990 ) ;
#7 = ORIENTED_EDGE ( 'NONE', *, *, #103, .F. ) ;
#8 = CARTESIAN_POINT ( 'NONE',  ( 4.085033166446466404E-13, -1.432836755002403758E-14, 117.0000000000000000 ) ) ;
#9 = DIRECTION ( 'NONE',  ( 1.000000000000000000, 0.0000000000000000000, 0.0000000000000000000 ) ) ;
#10 = AXIS2_PLACEMENT_3D ( 'NONE', #132, #130, #202 ) ;
#11 = APPROVAL_STATUS ( 'not_yet_approved' ) ;
#12 = COORDINATED_UNIVERSAL_TIME_OFFSET ( 1, 0, .AHEAD. ) ;
#13 = ORIENTED_EDGE ( 'NONE', *, *, #149, .F. ) ;
#14 = CARTESIAN_POINT ( 'NONE',  ( 0.0000000000000000000, 0.0000000000000000000, 0.0000000000000000000 ) ) ;
#15 = AXIS2_PLACEMENT_3D ( 'NONE', #43, #210, #63 ) ;
#16 = AXIS2_PLACEMENT_3D ( 'NONE', #24, #5, #46 ) ;
#17 = CARTESIAN_POINT ( 'NONE',  ( -3.785471652766322713E-31, 4.366324865405186273, -1.084202172485504434E-16 ) ) ;
#18 = DIRECTION ( 'NONE',  ( -3.491481338843133355E-15, -6.050473371657535470E-16, -1.000000000000000000 ) ) ;
#19 = APPROVAL_PERSON_ORGANIZATION ( #92, #20, #165 ) ;
#20 = APPROVAL ( #110, 'UNSPECIFIED' ) ;
#21 = DIRECTION ( 'NONE',  ( 2.112511486830957960E-30, -1.000000000000000000, 6.050473371657535470E-16 ) ) ;
#22 = DIRECTION ( 'NONE',  ( -3.491481338843133355E-15, 1.224646799147353454E-16, -1.000000000000000000 ) ) ;
#23 = EDGE_CURVE ( 'NONE', #243, #243, #204, .T. ) ;
#24 = CARTESIAN_POINT ( 'NONE',  ( 8.845364268127459472E-30, 1.532834799129961653E-30, 2.533413015765474859E-15 ) ) ;
#25 = CC_DESIGN_APPROVAL ( #93, ( #117 ) ) ;
#26 = ORIENTED_EDGE ( 'NONE', *, *, #183, .T. ) ;
#27 = COORDINATED_UNIVERSAL_TIME_OFFSET ( 1, 0, .AHEAD. ) ;
#28 = MECHANICAL_CONTEXT ( 'NONE', #77, 'mechanical' ) ;
#29 = EDGE_LOOP ( 'NONE', ( #111 ) ) ;
#30 = SHAPE_DEFINITION_REPRESENTATION ( #208, #81 ) ;
#31 = CALENDAR_DATE ( 2021, 26, 11 ) ;
#32 = DATE_AND_TIME ( #31, #56 ) ;
#33 = ADVANCED_FACE ( 'NONE', ( #187, #108 ), #237, .T. ) ;
#34 = FACE_OUTER_BOUND ( 'NONE', #228, .T. ) ;
#35 = VERTEX_POINT ( 'NONE', #131 ) ;
#36 = DIRECTION ( 'NONE',  ( -3.491481338843133355E-15, -6.050473371657535470E-16, -1.000000000000000000 ) ) ;
#37 = VERTEX_POINT ( 'NONE', #168 ) ;
#38 = FACE_OUTER_BOUND ( 'NONE', #196, .T. ) ;
#39 = CONICAL_SURFACE ( 'NONE', #91, 3.000000000000011990, 0.7853981633974453924 ) ;
#40 = ADVANCED_FACE ( 'NONE', ( #215, #38 ), #39, .T. ) ;
#41 = DIRECTION ( 'NONE',  ( 0.0000000000000000000, 1.000000000000000000, 0.0000000000000000000 ) ) ;
#42 = ORIENTED_EDGE ( 'NONE', *, *, #114, .T. ) ;
#43 = CARTESIAN_POINT ( 'NONE',  ( 5.885717584240488190E-14, -2.064431827269533466E-15, 16.85736514974660949 ) ) ;
#44 = DATE_AND_TIME ( #86, #221 ) ;
#45 = EDGE_LOOP ( 'NONE', ( #157 ) ) ;
#46 = DIRECTION ( 'NONE',  ( 2.112511486830958310E-30, -1.000000000000000000, 6.050473371657535470E-16 ) ) ;
#47 = PERSON_AND_ORGANIZATION_ROLE ( 'design_supplier' ) ;
#48 = CONICAL_SURFACE ( 'NONE', #16, 4.366324865405186273, 0.5235987755982977054 ) ;
#49 = EDGE_LOOP ( 'NONE', ( #151 ) ) ;
#50 = PRODUCT ( '341980', '341980', '', ( #28 ) ) ;
#51 = EDGE_LOOP ( 'NONE', ( #143 ) ) ;
#52 = AXIS2_PLACEMENT_3D ( 'NONE', #205, #36, #118 ) ;
#53 = DATE_AND_TIME ( #216, #207 ) ;
#54 = ADVANCED_FACE ( 'NONE', ( #167, #75 ), #146, .T. ) ;
#55 = COORDINATED_UNIVERSAL_TIME_OFFSET ( 1, 0, .AHEAD. ) ;
#56 = LOCAL_TIME ( 7, 34, 19.00000000000000000, #55 ) ;
#57 = DIRECTION ( 'NONE',  ( 0.0000000000000000000, 1.000000000000000000, 0.0000000000000000000 ) ) ;
#58 = DIRECTION ( 'NONE',  ( -2.112511486830957960E-30, 1.000000000000000000, -6.050473371657535470E-16 ) ) ;
#59 = DIRECTION ( 'NONE',  ( -3.491481338843133355E-15, 1.224646799147353454E-16, -1.000000000000000000 ) ) ;
#60 = VERTEX_POINT ( 'NONE', #206 ) ;
#61 = CIRCLE ( 'NONE', #217, 2.400000000000011902 ) ;
#62 = DIRECTION ( 'NONE',  ( -3.491481338843133355E-15, -6.050473371657535470E-16, -1.000000000000000000 ) ) ;
#63 = DIRECTION ( 'NONE',  ( 0.0000000000000000000, 1.000000000000000000, 0.0000000000000000000 ) ) ;
#64 = PLANE ( 'NONE',  #201 ) ;
#65 = PERSON_AND_ORGANIZATION ( #180, #129 ) ;
#66 = CARTESIAN_POINT ( 'NONE',  ( 5.885717584240489452E-14, 1.019950389548496355E-14, 16.85736514974661304 ) ) ;
#67 =( GEOMETRIC_REPRESENTATION_CONTEXT ( 3 ) GLOBAL_UNCERTAINTY_ASSIGNED_CONTEXT ( ( #169 ) ) GLOBAL_UNIT_ASSIGNED_CONTEXT ( ( #225, #116, #127 ) ) REPRESENTATION_CONTEXT ( 'NONE', 'WORKASPACE' ) );
#68 = EDGE_LOOP ( 'NONE', ( #177 ) ) ;
#69 = CARTESIAN_POINT ( 'NONE',  ( 0.0000000000000000000, 0.0000000000000000000, 0.0000000000000000000 ) ) ;
#70 = ADVANCED_FACE ( 'NONE', ( #34 ), #74, .T. ) ;
#71 = CLOSED_SHELL ( 'NONE', ( #70, #40, #54, #179, #214 ) ) ;
#72 = AXIS2_PLACEMENT_3D ( 'NONE', #101, #22, #211 ) ;
#73 = PERSON_AND_ORGANIZATION ( #180, #129 ) ;
#74 = PLANE ( 'NONE',  #212 ) ;
#75 = FACE_OUTER_BOUND ( 'NONE', #193, .T. ) ;
#76 = CARTESIAN_POINT ( 'NONE',  ( 1.745740669421566283E-15, 4.654999999999998472, 0.4999999999999998890 ) ) ;
#77 = APPLICATION_CONTEXT ( 'configuration controlled 3d designs of mechanical parts and assemblies' ) ;
#78 = DIRECTION ( 'NONE',  ( 4.275831445896959482E-31, 1.000000000000000000, 1.224646799147353700E-16 ) ) ;
#79 = VERTEX_POINT ( 'NONE', #17 ) ;
#80 = CARTESIAN_POINT ( 'NONE',  ( 1.745740669421576341E-15, 3.025236685828784499E-16, 0.5000000000000027756 ) ) ;
#81 = ADVANCED_BREP_SHAPE_REPRESENTATION ( '341980', ( #192, #120, #98 ), #67 ) ;
#82 = FACE_OUTER_BOUND ( 'NONE', #229, .T. ) ;
#83 = PRODUCT_DEFINITION_FORMATION_WITH_SPECIFIED_SOURCE ( 'ANY', '', #50, .NOT_KNOWN. ) ;
#84 = EDGE_LOOP ( 'NONE', ( #232 ) ) ;
#85 = DIRECTION ( 'NONE',  ( -3.491481338843133355E-15, 1.224646799147353454E-16, -1.000000000000000000 ) ) ;
#86 = CALENDAR_DATE ( 2021, 26, 11 ) ;
#87 = PERSON_AND_ORGANIZATION_ROLE ( 'classification_officer' ) ;
#88 = AXIS2_PLACEMENT_3D ( 'NONE', #95, #18, #224 ) ;
#89 = APPLICATION_PROTOCOL_DEFINITION ( 'international standard', 'config_control_design', 1994, #119 ) ;
#90 = DATE_AND_TIME ( #159, #102 ) ;
#91 = AXIS2_PLACEMENT_3D ( 'NONE', #186, #94, #57 ) ;
#92 = PERSON_AND_ORGANIZATION ( #180, #129 ) ;
#93 = APPROVAL ( #11, 'UNSPECIFIED' ) ;
#94 = DIRECTION ( 'NONE',  ( -3.491481338843133355E-15, 1.224646799147353454E-16, -1.000000000000000000 ) ) ;
#95 = CARTESIAN_POINT ( 'NONE',  ( 8.845364268127459472E-30, 1.532834799129961653E-30, 2.533413015765474859E-15 ) ) ;
#96 = CARTESIAN_POINT ( 'NONE',  ( 4.085033166446466404E-13, -1.432836755002403442E-14, 117.0000000000000000 ) ) ;
#97 = CARTESIAN_POINT ( 'NONE',  ( 4.064084278413407478E-13, 2.999999999999997335, 116.4000000000000057 ) ) ;
#98 = AXIS2_PLACEMENT_3D ( 'NONE', #69, #139, #9 ) ;
#99 = FACE_BOUND ( 'NONE', #104, .T. ) ;
#100 = CC_DESIGN_PERSON_AND_ORGANIZATION_ASSIGNMENT ( #156, #234, ( #50 ) ) ;
#101 = CARTESIAN_POINT ( 'NONE',  ( 6.886566102748346540E-14, -2.415482231287484845E-15, 19.72390923627316184 ) ) ;
#102 = LOCAL_TIME ( 7, 34, 19.00000000000000000, #27 ) ;
#103 = EDGE_CURVE ( 'NONE', #133, #133, #6, .T. ) ;
#104 = EDGE_LOOP ( 'NONE', ( #26 ) ) ;
#105 = APPLICATION_PROTOCOL_DEFINITION ( 'international standard', 'config_control_design', 1994, #77 ) ;
#106 = DATE_TIME_ROLE ( 'classification_date' ) ;
#107 = DATE_AND_TIME ( #218, #148 ) ;
#108 = FACE_OUTER_BOUND ( 'NONE', #49, .T. ) ;
#109 = APPROVAL_STATUS ( 'not_yet_approved' ) ;
#110 = APPROVAL_STATUS ( 'not_yet_approved' ) ;
#111 = ORIENTED_EDGE ( 'NONE', *, *, #23, .T. ) ;
#112 = CIRCLE ( 'NONE', #72, 2.999999999999988454 ) ;
#113 = PRODUCT_DEFINITION ( 'UNKNOWN', '', #83, #135 ) ;
#114 = EDGE_CURVE ( 'NONE', #37, #37, #178, .T. ) ;
#115 = FACE_OUTER_BOUND ( 'NONE', #239, .T. ) ;
#116 =( NAMED_UNIT ( * ) PLANE_ANGLE_UNIT ( ) SI_UNIT ( $, .RADIAN. ) );
#117 = SECURITY_CLASSIFICATION ( '', '', #126 ) ;
#118 = DIRECTION ( 'NONE',  ( -2.112511486830957960E-30, 1.000000000000000000, -6.050473371657535470E-16 ) ) ;
#119 = APPLICATION_CONTEXT ( 'configuration controlled 3d designs of mechanical parts and assemblies' ) ;
#120 = MANIFOLD_SOLID_BREP ( 'Corps-Déplacer/Copier1[2]', #190 ) ;
#121 = CONICAL_SURFACE ( 'NONE', #15, 4.655000000000000249, 0.5235987755982929315 ) ;
#122 = DIRECTION ( 'NONE',  ( -3.491481338843133355E-15, 1.224646799147353454E-16, -1.000000000000000000 ) ) ;
#123 = ORIENTED_EDGE ( 'NONE', *, *, #240, .F. ) ;
#124 = DIRECTION ( 'NONE',  ( 0.0000000000000000000, 1.000000000000000000, 0.0000000000000000000 ) ) ;
#125 = PERSON_AND_ORGANIZATION ( #180, #129 ) ;
#126 = SECURITY_CLASSIFICATION_LEVEL ( 'unclassified' ) ;
#127 =( NAMED_UNIT ( * ) SI_UNIT ( $, .STERADIAN. ) SOLID_ANGLE_UNIT ( ) );
#128 = DATE_TIME_ROLE ( 'creation_date' ) ;
#129 = ORGANIZATION ( 'UNSPECIFIED', 'UNSPECIFIED', '' ) ;
#130 = DIRECTION ( 'NONE',  ( -3.491481338843133355E-15, -6.050473371657535470E-16, -1.000000000000000000 ) ) ;
#131 = CARTESIAN_POINT ( 'NONE',  ( 6.886566102748346540E-14, 2.999999999999985789, 19.72390923627316184 ) ) ;
#132 = CARTESIAN_POINT ( 'NONE',  ( 5.885717584240489452E-14, 1.019950389548496355E-14, 16.85736514974661304 ) ) ;
#133 = VERTEX_POINT ( 'NONE', #97 ) ;
#134 = DIRECTION ( 'NONE',  ( -2.151414760647396438E-30, 1.000000000000000000, -6.055694196481874649E-16 ) ) ;
#135 = DESIGN_CONTEXT ( 'detailed design', #119, 'design' ) ;
#136 = PLANE ( 'NONE',  #197 ) ;
#137 = CARTESIAN_POINT ( 'NONE',  ( 5.885717584240489452E-14, 4.654999999999998472, 16.85736514974661304 ) ) ;
#138 = PERSON_AND_ORGANIZATION_ROLE ( 'creator' ) ;
#139 = DIRECTION ( 'NONE',  ( 0.0000000000000000000, 0.0000000000000000000, 1.000000000000000000 ) ) ;
#140 = ADVANCED_FACE ( 'NONE', ( #115 ), #222, .T. ) ;
#141 = AXIS2_PLACEMENT_3D ( 'NONE', #173, #85, #124 ) ;
#142 = PERSON_AND_ORGANIZATION_ROLE ( 'creator' ) ;
#143 = ORIENTED_EDGE ( 'NONE', *, *, #149, .T. ) ;
#144 = CC_DESIGN_APPROVAL ( #219, ( #83 ) ) ;
#145 = DIRECTION ( 'NONE',  ( -4.275831445896959482E-31, -1.000000000000000000, -1.224646799147353454E-16 ) ) ;
#146 = CYLINDRICAL_SURFACE ( 'NONE', #238, 3.000000000000000000 ) ;
#147 = CC_DESIGN_PERSON_AND_ORGANIZATION_ASSIGNMENT ( #65, #138, ( #83 ) ) ;
#148 = LOCAL_TIME ( 7, 34, 19.00000000000000000, #233 ) ;
#149 = EDGE_CURVE ( 'NONE', #203, #203, #170, .T. ) ;
#150 = FACE_BOUND ( 'NONE', #213, .T. ) ;
#151 = ORIENTED_EDGE ( 'NONE', *, *, #23, .F. ) ;
#152 = DIRECTION ( 'NONE',  ( -3.491481338843133355E-15, 1.224646799147353454E-16, -1.000000000000000000 ) ) ;
#153 = EDGE_LOOP ( 'NONE', ( #42 ) ) ;
#154 = PRODUCT_RELATED_PRODUCT_CATEGORY ( 'detail', '', ( #50 ) ) ;
#155 = ORIENTED_EDGE ( 'NONE', *, *, #183, .F. ) ;
#156 = PERSON_AND_ORGANIZATION ( #180, #129 ) ;
#157 = ORIENTED_EDGE ( 'NONE', *, *, #195, .T. ) ;
#158 = CIRCLE ( 'NONE', #88, 4.366324865405186273 ) ;
#159 = CALENDAR_DATE ( 2021, 26, 11 ) ;
#160 = ORIENTED_EDGE ( 'NONE', *, *, #240, .T. ) ;
#161 = CC_DESIGN_DATE_AND_TIME_ASSIGNMENT ( #107, #106, ( #117 ) ) ;
#162 = PERSON_AND_ORGANIZATION ( #180, #129 ) ;
#163 = CC_DESIGN_SECURITY_CLASSIFICATION ( #117, ( #83 ) ) ;
#164 = DIRECTION ( 'NONE',  ( -3.491481338843133355E-15, -6.050473371657535470E-16, -1.000000000000000000 ) ) ;
#165 = APPROVAL_ROLE ( '' ) ;
#166 = CARTESIAN_POINT ( 'NONE',  ( 4.064084278413407478E-13, -1.425488874207519270E-14, 116.4000000000000057 ) ) ;
#167 = FACE_OUTER_BOUND ( 'NONE', #68, .T. ) ;
#168 = CARTESIAN_POINT ( 'NONE',  ( 5.885717584240488190E-14, 4.654999999999998472, 16.85736514974660949 ) ) ;
#169 = UNCERTAINTY_MEASURE_WITH_UNIT (LENGTH_MEASURE( 1.000000000000000082E-05 ), #225, 'distance_accuracy_value', 'NONE');
#170 = CIRCLE ( 'NONE', #141, 4.655000000000000249 ) ;
#171 = ADVANCED_FACE ( 'NONE', ( #191, #150 ), #48, .T. ) ;
#172 = APPROVAL_PERSON_ORGANIZATION ( #162, #93, #182 ) ;
#173 = CARTESIAN_POINT ( 'NONE',  ( 5.885717584240488190E-14, -2.064431827269533466E-15, 16.85736514974660949 ) ) ;
#174 = CC_DESIGN_PERSON_AND_ORGANIZATION_ASSIGNMENT ( #194, #87, ( #117 ) ) ;
#175 = DIRECTION ( 'NONE',  ( 3.491481338843133355E-15, 6.050473371657535470E-16, 1.000000000000000000 ) ) ;
#176 = ORIENTED_EDGE ( 'NONE', *, *, #195, .F. ) ;
#177 = ORIENTED_EDGE ( 'NONE', *, *, #103, .T. ) ;
#178 = CIRCLE ( 'NONE', #10, 4.654999999999987814 ) ;
#179 = ADVANCED_FACE ( 'NONE', ( #99, #82 ), #121, .T. ) ;
#180 = PERSON ( 'UNSPECIFIED', 'UNSPECIFIED', 'UNSPECIFIED', ('UNSPECIFIED'), ('UNSPECIFIED'), ('UNSPECIFIED') ) ;
#181 = APPROVAL_ROLE ( '' ) ;
#182 = APPROVAL_ROLE ( '' ) ;
#183 = EDGE_CURVE ( 'NONE', #35, #35, #112, .T. ) ;
#184 = DIRECTION ( 'NONE',  ( 0.0000000000000000000, 1.000000000000000000, 0.0000000000000000000 ) ) ;
#185 = AXIS2_PLACEMENT_3D ( 'NONE', #166, #242, #184 ) ;
#186 = CARTESIAN_POINT ( 'NONE',  ( 4.064084278413407478E-13, -1.425488874207519270E-14, 116.4000000000000057 ) ) ;
#187 = FACE_OUTER_BOUND ( 'NONE', #153, .T. ) ;
#188 = CC_DESIGN_APPROVAL ( #20, ( #113 ) ) ;
#189 = DIRECTION ( 'NONE',  ( 4.275831445896959482E-31, 1.000000000000000000, 1.224646799147353454E-16 ) ) ;
#190 = CLOSED_SHELL ( 'NONE', ( #4, #33, #171, #140 ) ) ;
#191 = FACE_OUTER_BOUND ( 'NONE', #29, .T. ) ;
#192 = MANIFOLD_SOLID_BREP ( 'Corps-Déplacer/Copier1[1]', #71 ) ;
#193 = EDGE_LOOP ( 'NONE', ( #155 ) ) ;
#194 = PERSON_AND_ORGANIZATION ( #180, #129 ) ;
#195 = EDGE_CURVE ( 'NONE', #60, #60, #61, .T. ) ;
#196 = EDGE_LOOP ( 'NONE', ( #7 ) ) ;
#197 = AXIS2_PLACEMENT_3D ( 'NONE', #66, #175, #21 ) ;
#198 = PERSON_AND_ORGANIZATION ( #180, #129 ) ;
#199 = APPROVAL_DATE_TIME ( #32, #20 ) ;
#200 = CC_DESIGN_PERSON_AND_ORGANIZATION_ASSIGNMENT ( #73, #142, ( #113 ) ) ;
#201 = AXIS2_PLACEMENT_3D ( 'NONE', #137, #122, #189 ) ;
#202 = DIRECTION ( 'NONE',  ( -2.647895090027570559E-30, 1.000000000000000000, -7.453162087977707956E-16 ) ) ;
#203 = VERTEX_POINT ( 'NONE', #2 ) ;
#204 = CIRCLE ( 'NONE', #241, 4.654999999999998472 ) ;
#205 = CARTESIAN_POINT ( 'NONE',  ( -4.801229299340361964E-30, 4.366324865405186273, -1.375126725131287873E-15 ) ) ;
#206 = CARTESIAN_POINT ( 'NONE',  ( 4.085033166446466404E-13, 2.399999999999997691, 117.0000000000000000 ) ) ;
#207 = LOCAL_TIME ( 7, 34, 19.00000000000000000, #220 ) ;
#208 = PRODUCT_DEFINITION_SHAPE ( 'NONE', 'NONE',  #113 ) ;
#209 = CC_DESIGN_PERSON_AND_ORGANIZATION_ASSIGNMENT ( #125, #47, ( #83 ) ) ;
#210 = DIRECTION ( 'NONE',  ( -3.491481338843133355E-15, 1.224646799147353454E-16, -1.000000000000000000 ) ) ;
#211 = DIRECTION ( 'NONE',  ( 0.0000000000000000000, 1.000000000000000000, 0.0000000000000000000 ) ) ;
#212 = AXIS2_PLACEMENT_3D ( 'NONE', #96, #1, #145 ) ;
#213 = EDGE_LOOP ( 'NONE', ( #123 ) ) ;
#214 = ADVANCED_FACE ( 'NONE', ( #230 ), #64, .T. ) ;
#215 = FACE_BOUND ( 'NONE', #45, .T. ) ;
#216 = CALENDAR_DATE ( 2021, 26, 11 ) ;
#217 = AXIS2_PLACEMENT_3D ( 'NONE', #8, #152, #41 ) ;
#218 = CALENDAR_DATE ( 2021, 26, 11 ) ;
#219 = APPROVAL ( #109, 'UNSPECIFIED' ) ;
#220 = COORDINATED_UNIVERSAL_TIME_OFFSET ( 1, 0, .AHEAD. ) ;
#221 = LOCAL_TIME ( 7, 34, 19.00000000000000000, #12 ) ;
#222 = PLANE ( 'NONE',  #52 ) ;
#223 = CARTESIAN_POINT ( 'NONE',  ( 0.0000000000000000000, 0.0000000000000000000, 0.0000000000000000000 ) ) ;
#224 = DIRECTION ( 'NONE',  ( -2.112511486830957960E-30, 1.000000000000000000, -6.050473371657535470E-16 ) ) ;
#225 =( LENGTH_UNIT ( ) NAMED_UNIT ( * ) SI_UNIT ( .MILLI., .METRE. ) );
#226 = APPROVAL_PERSON_ORGANIZATION ( #198, #219, #181 ) ;
#227 = CC_DESIGN_DATE_AND_TIME_ASSIGNMENT ( #53, #128, ( #113 ) ) ;
#228 = EDGE_LOOP ( 'NONE', ( #176 ) ) ;
#229 = EDGE_LOOP ( 'NONE', ( #13 ) ) ;
#230 = FACE_OUTER_BOUND ( 'NONE', #51, .T. ) ;
#231 = APPROVAL_DATE_TIME ( #44, #219 ) ;
#232 = ORIENTED_EDGE ( 'NONE', *, *, #114, .F. ) ;
#233 = COORDINATED_UNIVERSAL_TIME_OFFSET ( 1, 0, .AHEAD. ) ;
#234 = PERSON_AND_ORGANIZATION_ROLE ( 'design_owner' ) ;
#235 = FACE_OUTER_BOUND ( 'NONE', #84, .T. ) ;
#236 = APPROVAL_DATE_TIME ( #90, #93 ) ;
#237 = CYLINDRICAL_SURFACE ( 'NONE', #3, 4.654999999999993143 ) ;
#238 = AXIS2_PLACEMENT_3D ( 'NONE', #223, #59, #78 ) ;
#239 = EDGE_LOOP ( 'NONE', ( #160 ) ) ;
#240 = EDGE_CURVE ( 'NONE', #79, #79, #158, .T. ) ;
#241 = AXIS2_PLACEMENT_3D ( 'NONE', #80, #62, #134 ) ;
#242 = DIRECTION ( 'NONE',  ( -3.491481338843133355E-15, 1.224646799147353454E-16, -1.000000000000000000 ) ) ;
#243 = VERTEX_POINT ( 'NONE', #76 ) ;
ENDSEC;
END-ISO-10303-21;
