ISO-10303-21;
HEADER;
FILE_DESCRIPTION (( 'STEP AP203' ),
    '1' );
FILE_NAME ('341920.step',
    '2021-11-26T06:34:18',
    ( '' ),
    ( '' ),
    'SwSTEP 2.0',
    'SolidWorks 2019',
    '' );
FILE_SCHEMA (( 'CONFIG_CONTROL_DESIGN' ));
ENDSEC;

DATA;
#1 = EDGE_LOOP ( 'NONE', ( #82 ) ) ;
#2 = PLANE ( 'NONE',  #124 ) ;
#3 = DIRECTION ( 'NONE',  ( -3.491481338843133355E-15, 1.224646799147353454E-16, -1.000000000000000000 ) ) ;
#4 = CLOSED_SHELL ( 'NONE', ( #93, #20, #233, #147, #132 ) ) ;
#5 = DIRECTION ( 'NONE',  ( 3.491481338843133355E-15, -1.224646799147353454E-16, 1.000000000000000000 ) ) ;
#6 = PLANE ( 'NONE',  #240 ) ;
#7 = AXIS2_PLACEMENT_3D ( 'NONE', #91, #53, #226 ) ;
#8 = DATE_AND_TIME ( #62, #23 ) ;
#9 = ADVANCED_FACE ( 'NONE', ( #109 ), #155, .T. ) ;
#10 = VERTEX_POINT ( 'NONE', #142 ) ;
#11 = EDGE_LOOP ( 'NONE', ( #216 ) ) ;
#12 = CARTESIAN_POINT ( 'NONE',  ( 6.067140276417135925E-14, 4.354999999999998650, 17.37698039201728051 ) ) ;
#13 = PERSON_AND_ORGANIZATION ( #126, #105 ) ;
#14 = PRODUCT_DEFINITION_FORMATION_WITH_SPECIFIED_SOURCE ( 'ANY', '', #51, .NOT_KNOWN. ) ;
#15 = ADVANCED_FACE ( 'NONE', ( #131, #207 ), #36, .T. ) ;
#16 = CIRCLE ( 'NONE', #48, 4.354999999999998650 ) ;
#17 = FACE_OUTER_BOUND ( 'NONE', #70, .T. ) ;
#18 = PRODUCT_RELATED_PRODUCT_CATEGORY ( 'detail', '', ( #51 ) ) ;
#19 = DIRECTION ( 'NONE',  ( -3.491481338843133355E-15, -5.796309047724425686E-16, -1.000000000000000000 ) ) ;
#20 = ADVANCED_FACE ( 'NONE', ( #69, #17 ), #25, .T. ) ;
#21 = DIRECTION ( 'NONE',  ( 0.0000000000000000000, 1.000000000000000000, 0.0000000000000000000 ) ) ;
#22 = DIRECTION ( 'NONE',  ( -2.023770487429744414E-30, 1.000000000000000000, -5.796309047724425686E-16 ) ) ;
#23 = LOCAL_TIME ( 7, 34, 18.00000000000000000, #195 ) ;
#24 = FACE_OUTER_BOUND ( 'NONE', #206, .T. ) ;
#25 = CONICAL_SURFACE ( 'NONE', #228, 3.000000000000011990, 0.7853981633974453924 ) ;
#26 = CARTESIAN_POINT ( 'NONE',  ( 4.085033166446466404E-13, -1.432836755002403758E-14, 117.0000000000000000 ) ) ;
#27 = APPROVAL_ROLE ( '' ) ;
#28 = DIRECTION ( 'NONE',  ( -3.491481338843133355E-15, 1.224646799147353454E-16, -1.000000000000000000 ) ) ;
#29 = PERSON_AND_ORGANIZATION_ROLE ( 'design_supplier' ) ;
#30 = CALENDAR_DATE ( 2021, 26, 11 ) ;
#31 = DIRECTION ( 'NONE',  ( 4.275831445896959482E-31, 1.000000000000000000, 1.224646799147353700E-16 ) ) ;
#32 = AXIS2_PLACEMENT_3D ( 'NONE', #230, #3, #157 ) ;
#33 = AXIS2_PLACEMENT_3D ( 'NONE', #225, #19, #52 ) ;
#34 = CONICAL_SURFACE ( 'NONE', #76, 4.066324865405186451, 0.5235987755982978165 ) ;
#35 = EDGE_LOOP ( 'NONE', ( #85 ) ) ;
#36 = CYLINDRICAL_SURFACE ( 'NONE', #204, 4.354999999999993321 ) ;
#37 = CARTESIAN_POINT ( 'NONE',  ( 6.067140276417137187E-14, 4.354999999999998650, 17.37698039201728051 ) ) ;
#38 = CARTESIAN_POINT ( 'NONE',  ( 6.886566102748345277E-14, -2.415482231287484450E-15, 19.72390923627315829 ) ) ;
#39 = DIRECTION ( 'NONE',  ( -4.275831445896959482E-31, -1.000000000000000000, -1.224646799147353454E-16 ) ) ;
#40 = CC_DESIGN_APPROVAL ( #128, ( #14 ) ) ;
#41 = PERSON_AND_ORGANIZATION ( #126, #105 ) ;
#42 = DIRECTION ( 'NONE',  ( 3.491481338843133355E-15, 5.796309047724425686E-16, 1.000000000000000000 ) ) ;
#43 = APPROVAL_DATE_TIME ( #237, #86 ) ;
#44 = VERTEX_POINT ( 'NONE', #180 ) ;
#45 = ORIENTED_EDGE ( 'NONE', *, *, #200, .F. ) ;
#46 = APPROVAL_ROLE ( '' ) ;
#47 = PERSON_AND_ORGANIZATION ( #126, #105 ) ;
#48 = AXIS2_PLACEMENT_3D ( 'NONE', #137, #92, #176 ) ;
#49 = CC_DESIGN_PERSON_AND_ORGANIZATION_ASSIGNMENT ( #47, #83, ( #169 ) ) ;
#50 = ORIENTED_EDGE ( 'NONE', *, *, #140, .F. ) ;
#51 = PRODUCT ( '341920', '341920', '', ( #117 ) ) ;
#52 = DIRECTION ( 'NONE',  ( -2.023770487429744414E-30, 1.000000000000000000, -5.796309047724425686E-16 ) ) ;
#53 = DIRECTION ( 'NONE',  ( -3.491481338843133355E-15, 1.224646799147353454E-16, -1.000000000000000000 ) ) ;
#54 = CYLINDRICAL_SURFACE ( 'NONE', #187, 3.000000000000000000 ) ;
#55 = AXIS2_PLACEMENT_3D ( 'NONE', #112, #191, #22 ) ;
#56 = DIRECTION ( 'NONE',  ( 0.0000000000000000000, 1.000000000000000000, 0.0000000000000000000 ) ) ;
#57 = FACE_OUTER_BOUND ( 'NONE', #35, .T. ) ;
#58 = CC_DESIGN_APPROVAL ( #113, ( #242 ) ) ;
#59 = CC_DESIGN_DATE_AND_TIME_ASSIGNMENT ( #197, #231, ( #242 ) ) ;
#60 = APPLICATION_PROTOCOL_DEFINITION ( 'international standard', 'config_control_design', 1994, #106 ) ;
#61 = EDGE_LOOP ( 'NONE', ( #199 ) ) ;
#62 = CALENDAR_DATE ( 2021, 26, 11 ) ;
#63 =( LENGTH_UNIT ( ) NAMED_UNIT ( * ) SI_UNIT ( .MILLI., .METRE. ) );
#64 = PERSON_AND_ORGANIZATION_ROLE ( 'creator' ) ;
#65 = EDGE_CURVE ( 'NONE', #202, #202, #178, .T. ) ;
#66 = EDGE_CURVE ( 'NONE', #44, #44, #108, .T. ) ;
#67 = ADVANCED_BREP_SHAPE_REPRESENTATION ( '341920', ( #149, #152, #193 ), #68 ) ;
#68 =( GEOMETRIC_REPRESENTATION_CONTEXT ( 3 ) GLOBAL_UNCERTAINTY_ASSIGNED_CONTEXT ( ( #111 ) ) GLOBAL_UNIT_ASSIGNED_CONTEXT ( ( #63, #218, #183 ) ) REPRESENTATION_CONTEXT ( 'NONE', 'WORKASPACE' ) );
#69 = FACE_BOUND ( 'NONE', #224, .T. ) ;
#70 = EDGE_LOOP ( 'NONE', ( #45 ) ) ;
#71 = EDGE_CURVE ( 'NONE', #103, #103, #241, .T. ) ;
#72 = DIRECTION ( 'NONE',  ( 4.275831445896959482E-31, 1.000000000000000000, 1.224646799147353454E-16 ) ) ;
#73 = CARTESIAN_POINT ( 'NONE',  ( 6.067140276417137187E-14, -2.128066341593028625E-15, 17.37698039201728051 ) ) ;
#74 = FACE_BOUND ( 'NONE', #154, .T. ) ;
#75 = FACE_BOUND ( 'NONE', #170, .T. ) ;
#76 = AXIS2_PLACEMENT_3D ( 'NONE', #134, #42, #114 ) ;
#77 = PERSON_AND_ORGANIZATION ( #126, #105 ) ;
#78 = EDGE_LOOP ( 'NONE', ( #189 ) ) ;
#79 = PERSON_AND_ORGANIZATION ( #126, #105 ) ;
#80 = VERTEX_POINT ( 'NONE', #121 ) ;
#81 = CC_DESIGN_PERSON_AND_ORGANIZATION_ASSIGNMENT ( #13, #64, ( #14 ) ) ;
#82 = ORIENTED_EDGE ( 'NONE', *, *, #65, .F. ) ;
#83 = PERSON_AND_ORGANIZATION_ROLE ( 'creator' ) ;
#84 = APPROVAL_PERSON_ORGANIZATION ( #141, #128, #27 ) ;
#85 = ORIENTED_EDGE ( 'NONE', *, *, #71, .F. ) ;
#86 = APPROVAL ( #215, 'UNSPECIFIED' ) ;
#87 = EDGE_LOOP ( 'NONE', ( #130 ) ) ;
#88 = CARTESIAN_POINT ( 'NONE',  ( 4.085033166446466404E-13, -1.432836755002403442E-14, 117.0000000000000000 ) ) ;
#89 = DIRECTION ( 'NONE',  ( 0.0000000000000000000, 1.000000000000000000, 0.0000000000000000000 ) ) ;
#90 = APPROVAL_PERSON_ORGANIZATION ( #212, #86, #217 ) ;
#91 = CARTESIAN_POINT ( 'NONE',  ( 6.067140276417137187E-14, -2.128066341593028625E-15, 17.37698039201728051 ) ) ;
#92 = DIRECTION ( 'NONE',  ( -3.491481338843133355E-15, -5.796309047724425686E-16, -1.000000000000000000 ) ) ;
#93 = ADVANCED_FACE ( 'NONE', ( #133 ), #2, .T. ) ;
#94 = DIRECTION ( 'NONE',  ( -3.491481338843133355E-15, -5.796309047724425686E-16, -1.000000000000000000 ) ) ;
#95 = DIRECTION ( 'NONE',  ( 1.000000000000000000, 0.0000000000000000000, 0.0000000000000000000 ) ) ;
#96 = AXIS2_PLACEMENT_3D ( 'NONE', #38, #174, #89 ) ;
#97 = APPROVAL_STATUS ( 'not_yet_approved' ) ;
#98 = VERTEX_POINT ( 'NONE', #238 ) ;
#99 = ORIENTED_EDGE ( 'NONE', *, *, #71, .T. ) ;
#100 = CC_DESIGN_PERSON_AND_ORGANIZATION_ASSIGNMENT ( #219, #143, ( #242 ) ) ;
#101 = ORIENTED_EDGE ( 'NONE', *, *, #66, .F. ) ;
#102 = SECURITY_CLASSIFICATION_LEVEL ( 'unclassified' ) ;
#103 = VERTEX_POINT ( 'NONE', #12 ) ;
#104 = CONICAL_SURFACE ( 'NONE', #203, 4.355000000000000426, 0.5235987755982934866 ) ;
#105 = ORGANIZATION ( 'UNSPECIFIED', 'UNSPECIFIED', '' ) ;
#106 = APPLICATION_CONTEXT ( 'configuration controlled 3d designs of mechanical parts and assemblies' ) ;
#107 = DIRECTION ( 'NONE',  ( -2.023770487429744414E-30, 1.000000000000000000, -5.796309047724425686E-16 ) ) ;
#108 = CIRCLE ( 'NONE', #7, 4.355000000000000426 ) ;
#109 = FACE_OUTER_BOUND ( 'NONE', #78, .T. ) ;
#110 = CARTESIAN_POINT ( 'NONE',  ( 0.0000000000000000000, 0.0000000000000000000, 0.0000000000000000000 ) ) ;
#111 = UNCERTAINTY_MEASURE_WITH_UNIT (LENGTH_MEASURE( 1.000000000000000082E-05 ), #63, 'distance_accuracy_value', 'NONE');
#112 = CARTESIAN_POINT ( 'NONE',  ( 7.850761089632112458E-30, 1.303327531185810144E-30, 2.248547343584938457E-15 ) ) ;
#113 = APPROVAL ( #97, 'UNSPECIFIED' ) ;
#114 = DIRECTION ( 'NONE',  ( 2.023770487429744414E-30, -1.000000000000000000, 5.796309047724425686E-16 ) ) ;
#115 = LOCAL_TIME ( 7, 34, 18.00000000000000000, #179 ) ;
#116 = FACE_OUTER_BOUND ( 'NONE', #181, .T. ) ;
#117 = MECHANICAL_CONTEXT ( 'NONE', #106, 'mechanical' ) ;
#118 = FACE_OUTER_BOUND ( 'NONE', #232, .T. ) ;
#119 = COORDINATED_UNIVERSAL_TIME_OFFSET ( 1, 0, .AHEAD. ) ;
#120 = APPROVAL_DATE_TIME ( #177, #128 ) ;
#121 = CARTESIAN_POINT ( 'NONE',  ( 4.064084278413407478E-13, 2.999999999999997335, 116.4000000000000057 ) ) ;
#122 = DATE_AND_TIME ( #162, #115 ) ;
#123 = DIRECTION ( 'NONE',  ( -3.491481338843133355E-15, 1.224646799147353454E-16, -1.000000000000000000 ) ) ;
#124 = AXIS2_PLACEMENT_3D ( 'NONE', #88, #5, #39 ) ;
#125 = CC_DESIGN_PERSON_AND_ORGANIZATION_ASSIGNMENT ( #77, #29, ( #14 ) ) ;
#126 = PERSON ( 'UNSPECIFIED', 'UNSPECIFIED', 'UNSPECIFIED', ('UNSPECIFIED'), ('UNSPECIFIED'), ('UNSPECIFIED') ) ;
#127 = APPLICATION_CONTEXT ( 'configuration controlled 3d designs of mechanical parts and assemblies' ) ;
#128 = APPROVAL ( #145, 'UNSPECIFIED' ) ;
#129 = LOCAL_TIME ( 7, 34, 18.00000000000000000, #139 ) ;
#130 = ORIENTED_EDGE ( 'NONE', *, *, #150, .F. ) ;
#131 = FACE_OUTER_BOUND ( 'NONE', #184, .T. ) ;
#132 = ADVANCED_FACE ( 'NONE', ( #116 ), #209, .T. ) ;
#133 = FACE_OUTER_BOUND ( 'NONE', #1, .T. ) ;
#134 = CARTESIAN_POINT ( 'NONE',  ( 7.850761089632112458E-30, 1.303327531185810144E-30, 2.248547343584938457E-15 ) ) ;
#135 = CIRCLE ( 'NONE', #32, 3.000000000000011990 ) ;
#136 = DIRECTION ( 'NONE',  ( -3.491481338843133355E-15, 1.224646799147353454E-16, -1.000000000000000000 ) ) ;
#137 = CARTESIAN_POINT ( 'NONE',  ( 1.745740669421575158E-15, 2.898154523862227141E-16, 0.5000000000000024425 ) ) ;
#138 = LOCAL_TIME ( 7, 34, 18.00000000000000000, #119 ) ;
#139 = COORDINATED_UNIVERSAL_TIME_OFFSET ( 1, 0, .AHEAD. ) ;
#140 = EDGE_CURVE ( 'NONE', #98, #98, #159, .T. ) ;
#141 = PERSON_AND_ORGANIZATION ( #126, #105 ) ;
#142 = CARTESIAN_POINT ( 'NONE',  ( 6.886566102748345277E-14, 2.999999999999985789, 19.72390923627315829 ) ) ;
#143 = PERSON_AND_ORGANIZATION_ROLE ( 'classification_officer' ) ;
#144 = CARTESIAN_POINT ( 'NONE',  ( 1.745740669421566283E-15, 4.354999999999998650, 0.4999999999999998890 ) ) ;
#145 = APPROVAL_STATUS ( 'not_yet_approved' ) ;
#146 = CLOSED_SHELL ( 'NONE', ( #167, #15, #151, #9 ) ) ;
#147 = ADVANCED_FACE ( 'NONE', ( #74, #24 ), #104, .T. ) ;
#148 = AXIS2_PLACEMENT_3D ( 'NONE', #173, #94, #156 ) ;
#149 = MANIFOLD_SOLID_BREP ( 'Corps-Déplacer/Copier1[1]', #4 ) ;
#150 = EDGE_CURVE ( 'NONE', #235, #235, #16, .T. ) ;
#151 = ADVANCED_FACE ( 'NONE', ( #118, #75 ), #34, .T. ) ;
#152 = MANIFOLD_SOLID_BREP ( 'Corps-Déplacer/Copier1[2]', #146 ) ;
#153 = EDGE_CURVE ( 'NONE', #10, #10, #205, .T. ) ;
#154 = EDGE_LOOP ( 'NONE', ( #161 ) ) ;
#155 = PLANE ( 'NONE',  #33 ) ;
#156 = DIRECTION ( 'NONE',  ( -2.830298884977805615E-30, 1.000000000000000000, -7.966583127333234805E-16 ) ) ;
#157 = DIRECTION ( 'NONE',  ( 0.0000000000000000000, 1.000000000000000000, 0.0000000000000000000 ) ) ;
#158 = CARTESIAN_POINT ( 'NONE',  ( 6.067140276417137187E-14, 1.007223486683797086E-14, 17.37698039201728051 ) ) ;
#159 = CIRCLE ( 'NONE', #55, 4.066324865405186451 ) ;
#160 = CALENDAR_DATE ( 2021, 26, 11 ) ;
#161 = ORIENTED_EDGE ( 'NONE', *, *, #153, .T. ) ;
#162 = CALENDAR_DATE ( 2021, 26, 11 ) ;
#163 = CARTESIAN_POINT ( 'NONE',  ( 0.0000000000000000000, 0.0000000000000000000, 0.0000000000000000000 ) ) ;
#164 = DIRECTION ( 'NONE',  ( 0.0000000000000000000, 0.0000000000000000000, 1.000000000000000000 ) ) ;
#165 = CC_DESIGN_DATE_AND_TIME_ASSIGNMENT ( #8, #201, ( #169 ) ) ;
#166 = CC_DESIGN_SECURITY_CLASSIFICATION ( #242, ( #14 ) ) ;
#167 = ADVANCED_FACE ( 'NONE', ( #57 ), #6, .T. ) ;
#168 = AXIS2_PLACEMENT_3D ( 'NONE', #26, #136, #211 ) ;
#169 = PRODUCT_DEFINITION ( 'UNKNOWN', '', #14, #208 ) ;
#170 = EDGE_LOOP ( 'NONE', ( #50 ) ) ;
#171 = CC_DESIGN_APPROVAL ( #86, ( #169 ) ) ;
#172 = ORIENTED_EDGE ( 'NONE', *, *, #65, .T. ) ;
#173 = CARTESIAN_POINT ( 'NONE',  ( 6.067140276417137187E-14, 1.007223486683797244E-14, 17.37698039201728406 ) ) ;
#174 = DIRECTION ( 'NONE',  ( -3.491481338843133355E-15, 1.224646799147353454E-16, -1.000000000000000000 ) ) ;
#175 = DIRECTION ( 'NONE',  ( -3.491481338843133355E-15, 1.224646799147353454E-16, -1.000000000000000000 ) ) ;
#176 = DIRECTION ( 'NONE',  ( -2.034277323577792706E-30, 1.000000000000000000, -5.725981622770748218E-16 ) ) ;
#177 = DATE_AND_TIME ( #239, #214 ) ;
#178 = CIRCLE ( 'NONE', #168, 2.400000000000011902 ) ;
#179 = COORDINATED_UNIVERSAL_TIME_OFFSET ( 1, 0, .AHEAD. ) ;
#180 = CARTESIAN_POINT ( 'NONE',  ( 6.067140276417137187E-14, 4.354999999999998650, 17.37698039201728051 ) ) ;
#181 = EDGE_LOOP ( 'NONE', ( #236 ) ) ;
#182 = COORDINATED_UNIVERSAL_TIME_OFFSET ( 1, 0, .AHEAD. ) ;
#183 =( NAMED_UNIT ( * ) SI_UNIT ( $, .STERADIAN. ) SOLID_ANGLE_UNIT ( ) );
#184 = EDGE_LOOP ( 'NONE', ( #99 ) ) ;
#185 = APPROVAL_DATE_TIME ( #122, #113 ) ;
#186 = CC_DESIGN_PERSON_AND_ORGANIZATION_ASSIGNMENT ( #41, #198, ( #51 ) ) ;
#187 = AXIS2_PLACEMENT_3D ( 'NONE', #210, #123, #31 ) ;
#188 = ORIENTED_EDGE ( 'NONE', *, *, #150, .T. ) ;
#189 = ORIENTED_EDGE ( 'NONE', *, *, #140, .T. ) ;
#190 = PRODUCT_DEFINITION_SHAPE ( 'NONE', 'NONE',  #169 ) ;
#191 = DIRECTION ( 'NONE',  ( -3.491481338843133355E-15, -5.796309047724425686E-16, -1.000000000000000000 ) ) ;
#192 = FACE_OUTER_BOUND ( 'NONE', #11, .T. ) ;
#193 = AXIS2_PLACEMENT_3D ( 'NONE', #163, #164, #95 ) ;
#194 = CARTESIAN_POINT ( 'NONE',  ( 4.064084278413407478E-13, -1.425488874207519270E-14, 116.4000000000000057 ) ) ;
#195 = COORDINATED_UNIVERSAL_TIME_OFFSET ( 1, 0, .AHEAD. ) ;
#196 = DIRECTION ( 'NONE',  ( 2.023770487429744414E-30, -1.000000000000000000, 5.796309047724425686E-16 ) ) ;
#197 = DATE_AND_TIME ( #160, #138 ) ;
#198 = PERSON_AND_ORGANIZATION_ROLE ( 'design_owner' ) ;
#199 = ORIENTED_EDGE ( 'NONE', *, *, #200, .T. ) ;
#200 = EDGE_CURVE ( 'NONE', #80, #80, #135, .T. ) ;
#201 = DATE_TIME_ROLE ( 'creation_date' ) ;
#202 = VERTEX_POINT ( 'NONE', #220 ) ;
#203 = AXIS2_PLACEMENT_3D ( 'NONE', #73, #28, #21 ) ;
#204 = AXIS2_PLACEMENT_3D ( 'NONE', #110, #243, #107 ) ;
#205 = CIRCLE ( 'NONE', #96, 2.999999999999988454 ) ;
#206 = EDGE_LOOP ( 'NONE', ( #101 ) ) ;
#207 = FACE_OUTER_BOUND ( 'NONE', #87, .T. ) ;
#208 = DESIGN_CONTEXT ( 'detailed design', #127, 'design' ) ;
#209 = PLANE ( 'NONE',  #222 ) ;
#210 = CARTESIAN_POINT ( 'NONE',  ( 0.0000000000000000000, 0.0000000000000000000, 0.0000000000000000000 ) ) ;
#211 = DIRECTION ( 'NONE',  ( 0.0000000000000000000, 1.000000000000000000, 0.0000000000000000000 ) ) ;
#212 = PERSON_AND_ORGANIZATION ( #126, #105 ) ;
#213 = DIRECTION ( 'NONE',  ( 3.491481338843133355E-15, 5.796309047724425686E-16, 1.000000000000000000 ) ) ;
#214 = LOCAL_TIME ( 7, 34, 18.00000000000000000, #182 ) ;
#215 = APPROVAL_STATUS ( 'not_yet_approved' ) ;
#216 = ORIENTED_EDGE ( 'NONE', *, *, #153, .F. ) ;
#217 = APPROVAL_ROLE ( '' ) ;
#218 =( NAMED_UNIT ( * ) PLANE_ANGLE_UNIT ( ) SI_UNIT ( $, .RADIAN. ) );
#219 = PERSON_AND_ORGANIZATION ( #126, #105 ) ;
#220 = CARTESIAN_POINT ( 'NONE',  ( 4.085033166446466404E-13, 2.399999999999997691, 117.0000000000000000 ) ) ;
#221 = APPLICATION_PROTOCOL_DEFINITION ( 'international standard', 'config_control_design', 1994, #127 ) ;
#222 = AXIS2_PLACEMENT_3D ( 'NONE', #37, #175, #72 ) ;
#223 = APPROVAL_PERSON_ORGANIZATION ( #79, #113, #46 ) ;
#224 = EDGE_LOOP ( 'NONE', ( #172 ) ) ;
#225 = CARTESIAN_POINT ( 'NONE',  ( -4.303927710092688457E-30, 4.066324865405186451, -1.232693889041019672E-15 ) ) ;
#226 = DIRECTION ( 'NONE',  ( 0.0000000000000000000, 1.000000000000000000, 0.0000000000000000000 ) ) ;
#227 = FACE_OUTER_BOUND ( 'NONE', #61, .T. ) ;
#228 = AXIS2_PLACEMENT_3D ( 'NONE', #194, #229, #56 ) ;
#229 = DIRECTION ( 'NONE',  ( -3.491481338843133355E-15, 1.224646799147353454E-16, -1.000000000000000000 ) ) ;
#230 = CARTESIAN_POINT ( 'NONE',  ( 4.064084278413407478E-13, -1.425488874207519270E-14, 116.4000000000000057 ) ) ;
#231 = DATE_TIME_ROLE ( 'classification_date' ) ;
#232 = EDGE_LOOP ( 'NONE', ( #188 ) ) ;
#233 = ADVANCED_FACE ( 'NONE', ( #227, #192 ), #54, .T. ) ;
#234 = SHAPE_DEFINITION_REPRESENTATION ( #190, #67 ) ;
#235 = VERTEX_POINT ( 'NONE', #144 ) ;
#236 = ORIENTED_EDGE ( 'NONE', *, *, #66, .T. ) ;
#237 = DATE_AND_TIME ( #30, #129 ) ;
#238 = CARTESIAN_POINT ( 'NONE',  ( -3.785471652766309138E-31, 4.066324865405186451, -1.084202172485504434E-16 ) ) ;
#239 = CALENDAR_DATE ( 2021, 26, 11 ) ;
#240 = AXIS2_PLACEMENT_3D ( 'NONE', #158, #213, #196 ) ;
#241 = CIRCLE ( 'NONE', #148, 4.354999999999987992 ) ;
#242 = SECURITY_CLASSIFICATION ( '', '', #102 ) ;
#243 = DIRECTION ( 'NONE',  ( -3.491481338843133355E-15, -5.796309047724425686E-16, -1.000000000000000000 ) ) ;
ENDSEC;
END-ISO-10303-21;
