ISO-10303-21;
HEADER;
FILE_DESCRIPTION (( 'STEP AP203' ),
    '1' );
FILE_NAME ('341900.step',
    '2021-11-26T06:34:17',
    ( '' ),
    ( '' ),
    'SwSTEP 2.0',
    'SolidWorks 2019',
    '' );
FILE_SCHEMA (( 'CONFIG_CONTROL_DESIGN' ));
ENDSEC;

DATA;
#1 = MANIFOLD_SOLID_BREP ( 'Corps-Déplacer/Copier1[2]', #231 ) ;
#2 = CC_DESIGN_APPROVAL ( #51, ( #234 ) ) ;
#3 = CIRCLE ( 'NONE', #111, 4.254999999999999893 ) ;
#4 = CARTESIAN_POINT ( 'NONE',  ( -4.146392376070958349E-30, 3.966324865405185918, -1.187573976106320387E-15 ) ) ;
#5 = AXIS2_PLACEMENT_3D ( 'NONE', #143, #146, #17 ) ;
#6 = DIRECTION ( 'NONE',  ( 0.0000000000000000000, 1.000000000000000000, 0.0000000000000000000 ) ) ;
#7 = CC_DESIGN_PERSON_AND_ORGANIZATION_ASSIGNMENT ( #36, #34, ( #37 ) ) ;
#8 = DIRECTION ( 'NONE',  ( -4.275831445896959482E-31, -1.000000000000000000, -1.224646799147353454E-16 ) ) ;
#9 = AXIS2_PLACEMENT_3D ( 'NONE', #211, #25, #226 ) ;
#10 = FACE_OUTER_BOUND ( 'NONE', #117, .T. ) ;
#11 = DIRECTION ( 'NONE',  ( 0.0000000000000000000, 1.000000000000000000, 0.0000000000000000000 ) ) ;
#12 = AXIS2_PLACEMENT_3D ( 'NONE', #63, #42, #120 ) ;
#13 = AXIS2_PLACEMENT_3D ( 'NONE', #206, #191, #119 ) ;
#14 = PERSON_AND_ORGANIZATION ( #222, #81 ) ;
#15 = DIRECTION ( 'NONE',  ( -3.491481338843133355E-15, 1.224646799147353454E-16, -1.000000000000000000 ) ) ;
#16 = DATE_TIME_ROLE ( 'classification_date' ) ;
#17 = DIRECTION ( 'NONE',  ( -1.995357883035330833E-30, 1.000000000000000000, -5.714932114448798599E-16 ) ) ;
#18 = ORIENTED_EDGE ( 'NONE', *, *, #180, .T. ) ;
#19 = DIRECTION ( 'NONE',  ( 3.491481338843133355E-15, 5.714932114448797613E-16, 1.000000000000000000 ) ) ;
#20 = EDGE_CURVE ( 'NONE', #123, #123, #141, .T. ) ;
#21 = APPLICATION_PROTOCOL_DEFINITION ( 'international standard', 'config_control_design', 1994, #66 ) ;
#22 = EDGE_LOOP ( 'NONE', ( #239 ) ) ;
#23 = DIRECTION ( 'NONE',  ( -3.491481338843133355E-15, 1.224646799147353454E-16, -1.000000000000000000 ) ) ;
#24 = VERTEX_POINT ( 'NONE', #83 ) ;
#25 = DIRECTION ( 'NONE',  ( -3.491481338843133355E-15, -5.714932114448797613E-16, -1.000000000000000000 ) ) ;
#26 = LOCAL_TIME ( 7, 34, 17.00000000000000000, #183 ) ;
#27 = AXIS2_PLACEMENT_3D ( 'NONE', #110, #237, #167 ) ;
#28 = DIRECTION ( 'NONE',  ( -3.491481338843133355E-15, 1.224646799147353454E-16, -1.000000000000000000 ) ) ;
#29 = ADVANCED_BREP_SHAPE_REPRESENTATION ( '341900', ( #161, #1, #13 ), #214 ) ;
#30 = CC_DESIGN_PERSON_AND_ORGANIZATION_ASSIGNMENT ( #134, #116, ( #199 ) ) ;
#31 = APPROVAL_PERSON_ORGANIZATION ( #14, #51, #56 ) ;
#32 = DESIGN_CONTEXT ( 'detailed design', #66, 'design' ) ;
#33 = LOCAL_TIME ( 7, 34, 17.00000000000000000, #149 ) ;
#34 = PERSON_AND_ORGANIZATION_ROLE ( 'classification_officer' ) ;
#35 = FACE_OUTER_BOUND ( 'NONE', #75, .T. ) ;
#36 = PERSON_AND_ORGANIZATION ( #222, #81 ) ;
#37 = SECURITY_CLASSIFICATION ( '', '', #218 ) ;
#38 = EDGE_LOOP ( 'NONE', ( #221 ) ) ;
#39 = DIRECTION ( 'NONE',  ( -3.491481338843133355E-15, -5.714932114448797613E-16, -1.000000000000000000 ) ) ;
#40 = APPLICATION_CONTEXT ( 'configuration controlled 3d designs of mechanical parts and assemblies' ) ;
#41 = PERSON_AND_ORGANIZATION ( #222, #81 ) ;
#42 = DIRECTION ( 'NONE',  ( -3.491481338843133355E-15, 1.224646799147353454E-16, -1.000000000000000000 ) ) ;
#43 = APPROVAL ( #144, 'UNSPECIFIED' ) ;
#44 = VERTEX_POINT ( 'NONE', #156 ) ;
#45 = ORIENTED_EDGE ( 'NONE', *, *, #52, .T. ) ;
#46 = CARTESIAN_POINT ( 'NONE',  ( 4.085033166446466404E-13, 2.399999999999997691, 117.0000000000000000 ) ) ;
#47 = AXIS2_PLACEMENT_3D ( 'NONE', #135, #23, #6 ) ;
#48 = ADVANCED_FACE ( 'NONE', ( #80, #154 ), #151, .T. ) ;
#49 = CARTESIAN_POINT ( 'NONE',  ( 6.127614507142686012E-14, -2.149277846367526354E-15, 17.55018547277416729 ) ) ;
#50 = CONICAL_SURFACE ( 'NONE', #150, 4.254999999999999893, 0.5235987755982927094 ) ;
#51 = APPROVAL ( #54, 'UNSPECIFIED' ) ;
#52 = EDGE_CURVE ( 'NONE', #44, #44, #3, .T. ) ;
#53 = DATE_AND_TIME ( #112, #26 ) ;
#54 = APPROVAL_STATUS ( 'not_yet_approved' ) ;
#55 = DIRECTION ( 'NONE',  ( -3.491481338843133355E-15, 1.224646799147353454E-16, -1.000000000000000000 ) ) ;
#56 = APPROVAL_ROLE ( '' ) ;
#57 = EDGE_LOOP ( 'NONE', ( #45 ) ) ;
#58 = DIRECTION ( 'NONE',  ( 1.995357883035331184E-30, -1.000000000000000000, 5.714932114448797613E-16 ) ) ;
#59 = CLOSED_SHELL ( 'NONE', ( #243, #88, #48, #224, #133 ) ) ;
#60 = ORIENTED_EDGE ( 'NONE', *, *, #52, .F. ) ;
#61 = DATE_AND_TIME ( #78, #33 ) ;
#62 = CIRCLE ( 'NONE', #107, 2.400000000000011902 ) ;
#63 = CARTESIAN_POINT ( 'NONE',  ( 4.064084278413407478E-13, -1.425488874207519270E-14, 116.4000000000000057 ) ) ;
#64 = CARTESIAN_POINT ( 'NONE',  ( 6.127614507142686012E-14, -2.149277846367526354E-15, 17.55018547277416729 ) ) ;
#65 = VERTEX_POINT ( 'NONE', #84 ) ;
#66 = APPLICATION_CONTEXT ( 'configuration controlled 3d designs of mechanical parts and assemblies' ) ;
#67 = CC_DESIGN_DATE_AND_TIME_ASSIGNMENT ( #216, #201, ( #232 ) ) ;
#68 = DIRECTION ( 'NONE',  ( -1.991560929566120387E-30, 1.000000000000000000, -5.605745662674761502E-16 ) ) ;
#69 = CC_DESIGN_PERSON_AND_ORGANIZATION_ASSIGNMENT ( #236, #125, ( #234 ) ) ;
#70 = CC_DESIGN_APPROVAL ( #194, ( #232 ) ) ;
#71 = EDGE_CURVE ( 'NONE', #229, #229, #87, .T. ) ;
#72 = COORDINATED_UNIVERSAL_TIME_OFFSET ( 1, 0, .AHEAD. ) ;
#73 = FACE_OUTER_BOUND ( 'NONE', #166, .T. ) ;
#74 = CALENDAR_DATE ( 2021, 26, 11 ) ;
#75 = EDGE_LOOP ( 'NONE', ( #18 ) ) ;
#76 = PLANE ( 'NONE',  #105 ) ;
#77 = LOCAL_TIME ( 7, 34, 17.00000000000000000, #90 ) ;
#78 = CALENDAR_DATE ( 2021, 26, 11 ) ;
#79 = CONICAL_SURFACE ( 'NONE', #12, 3.000000000000011990, 0.7853981633974453924 ) ;
#80 = FACE_OUTER_BOUND ( 'NONE', #38, .T. ) ;
#81 = ORGANIZATION ( 'UNSPECIFIED', 'UNSPECIFIED', '' ) ;
#82 = DIRECTION ( 'NONE',  ( -3.491481338843133355E-15, 1.224646799147353454E-16, -1.000000000000000000 ) ) ;
#83 = CARTESIAN_POINT ( 'NONE',  ( 6.886566102748345277E-14, 2.999999999999985789, 19.72390923627315829 ) ) ;
#84 = CARTESIAN_POINT ( 'NONE',  ( 6.127614507142686012E-14, 4.254999999999998117, 17.55018547277416729 ) ) ;
#85 = CARTESIAN_POINT ( 'NONE',  ( 1.745740669421574763E-15, 2.857466057224412119E-16, 0.5000000000000023315 ) ) ;
#86 = APPROVAL_PERSON_ORGANIZATION ( #238, #43, #113 ) ;
#87 = CIRCLE ( 'NONE', #9, 3.966324865405185918 ) ;
#88 = ADVANCED_FACE ( 'NONE', ( #100, #209 ), #79, .T. ) ;
#89 = AXIS2_PLACEMENT_3D ( 'NONE', #155, #210, #8 ) ;
#90 = COORDINATED_UNIVERSAL_TIME_OFFSET ( 1, 0, .AHEAD. ) ;
#91 = PLANE ( 'NONE',  #27 ) ;
#92 = PERSON_AND_ORGANIZATION ( #222, #81 ) ;
#93 = CARTESIAN_POINT ( 'NONE',  ( 6.127614507142687274E-14, 1.002981185728898645E-14, 17.55018547277417085 ) ) ;
#94 = ORIENTED_EDGE ( 'NONE', *, *, #200, .T. ) ;
#95 = PERSON_AND_ORGANIZATION ( #222, #81 ) ;
#96 = EDGE_LOOP ( 'NONE', ( #60 ) ) ;
#97 = ADVANCED_FACE ( 'NONE', ( #175 ), #172, .T. ) ;
#98 = EDGE_LOOP ( 'NONE', ( #241 ) ) ;
#99 =( NAMED_UNIT ( * ) PLANE_ANGLE_UNIT ( ) SI_UNIT ( $, .RADIAN. ) );
#100 = FACE_BOUND ( 'NONE', #204, .T. ) ;
#101 = AXIS2_PLACEMENT_3D ( 'NONE', #4, #39, #220 ) ;
#102 = DIRECTION ( 'NONE',  ( -3.491481338843133355E-15, -5.714932114448797613E-16, -1.000000000000000000 ) ) ;
#103 = LOCAL_TIME ( 7, 34, 17.00000000000000000, #72 ) ;
#104 = CC_DESIGN_PERSON_AND_ORGANIZATION_ASSIGNMENT ( #41, #127, ( #232 ) ) ;
#105 = AXIS2_PLACEMENT_3D ( 'NONE', #129, #15, #205 ) ;
#106 = DATE_AND_TIME ( #109, #196 ) ;
#107 = AXIS2_PLACEMENT_3D ( 'NONE', #157, #28, #11 ) ;
#108 = CC_DESIGN_DATE_AND_TIME_ASSIGNMENT ( #106, #16, ( #37 ) ) ;
#109 = CALENDAR_DATE ( 2021, 26, 11 ) ;
#110 = CARTESIAN_POINT ( 'NONE',  ( 6.127614507142684750E-14, 1.002981185728898171E-14, 17.55018547277416374 ) ) ;
#111 = AXIS2_PLACEMENT_3D ( 'NONE', #64, #137, #192 ) ;
#112 = CALENDAR_DATE ( 2021, 26, 11 ) ;
#113 = APPROVAL_ROLE ( '' ) ;
#114 = ORIENTED_EDGE ( 'NONE', *, *, #71, .F. ) ;
#115 = FACE_OUTER_BOUND ( 'NONE', #128, .T. ) ;
#116 = PERSON_AND_ORGANIZATION_ROLE ( 'design_owner' ) ;
#117 = EDGE_LOOP ( 'NONE', ( #207 ) ) ;
#118 = EDGE_CURVE ( 'NONE', #24, #24, #176, .T. ) ;
#119 = DIRECTION ( 'NONE',  ( 1.000000000000000000, 0.0000000000000000000, 0.0000000000000000000 ) ) ;
#120 = DIRECTION ( 'NONE',  ( 0.0000000000000000000, 1.000000000000000000, 0.0000000000000000000 ) ) ;
#121 =( LENGTH_UNIT ( ) NAMED_UNIT ( * ) SI_UNIT ( .MILLI., .METRE. ) );
#122 = EDGE_LOOP ( 'NONE', ( #114 ) ) ;
#123 = VERTEX_POINT ( 'NONE', #212 ) ;
#124 = DIRECTION ( 'NONE',  ( -3.491481338843133355E-15, 1.224646799147353454E-16, -1.000000000000000000 ) ) ;
#125 = PERSON_AND_ORGANIZATION_ROLE ( 'creator' ) ;
#126 = FACE_OUTER_BOUND ( 'NONE', #170, .T. ) ;
#127 = PERSON_AND_ORGANIZATION_ROLE ( 'creator' ) ;
#128 = EDGE_LOOP ( 'NONE', ( #147 ) ) ;
#129 = CARTESIAN_POINT ( 'NONE',  ( 6.127614507142684750E-14, 4.254999999999998117, 17.55018547277416374 ) ) ;
#130 = CC_DESIGN_SECURITY_CLASSIFICATION ( #37, ( #234 ) ) ;
#131 = MECHANICAL_CONTEXT ( 'NONE', #40, 'mechanical' ) ;
#132 = EDGE_LOOP ( 'NONE', ( #187 ) ) ;
#133 = ADVANCED_FACE ( 'NONE', ( #240 ), #76, .T. ) ;
#134 = PERSON_AND_ORGANIZATION ( #222, #81 ) ;
#135 = CARTESIAN_POINT ( 'NONE',  ( 4.064084278413407478E-13, -1.425488874207519270E-14, 116.4000000000000057 ) ) ;
#136 = PLANE ( 'NONE',  #89 ) ;
#137 = DIRECTION ( 'NONE',  ( -3.491481338843133355E-15, 1.224646799147353454E-16, -1.000000000000000000 ) ) ;
#138 = VERTEX_POINT ( 'NONE', #46 ) ;
#139 = FACE_BOUND ( 'NONE', #132, .T. ) ;
#140 = APPROVAL_PERSON_ORGANIZATION ( #95, #194, #242 ) ;
#141 = CIRCLE ( 'NONE', #47, 3.000000000000011990 ) ;
#142 = CALENDAR_DATE ( 2021, 26, 11 ) ;
#143 = CARTESIAN_POINT ( 'NONE',  ( 0.0000000000000000000, 0.0000000000000000000, 0.0000000000000000000 ) ) ;
#144 = APPROVAL_STATUS ( 'not_yet_approved' ) ;
#145 = ORIENTED_EDGE ( 'NONE', *, *, #215, .T. ) ;
#146 = DIRECTION ( 'NONE',  ( -3.491481338843133355E-15, -5.714932114448797613E-16, -1.000000000000000000 ) ) ;
#147 = ORIENTED_EDGE ( 'NONE', *, *, #215, .F. ) ;
#148 = ADVANCED_FACE ( 'NONE', ( #73, #188 ), #160, .T. ) ;
#149 = COORDINATED_UNIVERSAL_TIME_OFFSET ( 1, 0, .AHEAD. ) ;
#150 = AXIS2_PLACEMENT_3D ( 'NONE', #49, #124, #195 ) ;
#151 = CYLINDRICAL_SURFACE ( 'NONE', #179, 3.000000000000000000 ) ;
#152 = CC_DESIGN_PERSON_AND_ORGANIZATION_ASSIGNMENT ( #92, #184, ( #234 ) ) ;
#153 = CARTESIAN_POINT ( 'NONE',  ( 1.745740669421566283E-15, 4.254999999999998117, 0.4999999999999998890 ) ) ;
#154 = FACE_OUTER_BOUND ( 'NONE', #98, .T. ) ;
#155 = CARTESIAN_POINT ( 'NONE',  ( 4.085033166446466404E-13, -1.432836755002403442E-14, 117.0000000000000000 ) ) ;
#156 = CARTESIAN_POINT ( 'NONE',  ( 6.127614507142686012E-14, 4.254999999999998117, 17.55018547277416729 ) ) ;
#157 = CARTESIAN_POINT ( 'NONE',  ( 4.085033166446466404E-13, -1.432836755002403758E-14, 117.0000000000000000 ) ) ;
#158 = ADVANCED_FACE ( 'NONE', ( #126 ), #91, .T. ) ;
#159 = PRODUCT_RELATED_PRODUCT_CATEGORY ( 'detail', '', ( #199 ) ) ;
#160 = CONICAL_SURFACE ( 'NONE', #223, 3.966324865405185918, 0.5235987755982978165 ) ;
#161 = MANIFOLD_SOLID_BREP ( 'Corps-Déplacer/Copier1[1]', #59 ) ;
#162 = AXIS2_PLACEMENT_3D ( 'NONE', #93, #102, #177 ) ;
#163 = APPROVAL_DATE_TIME ( #203, #51 ) ;
#164 = CARTESIAN_POINT ( 'NONE',  ( 7.535690421588652242E-30, 1.233458094584880625E-30, 2.158307517715539887E-15 ) ) ;
#165 = COORDINATED_UNIVERSAL_TIME_OFFSET ( 1, 0, .AHEAD. ) ;
#166 = EDGE_LOOP ( 'NONE', ( #145 ) ) ;
#167 = DIRECTION ( 'NONE',  ( 1.995357883035330833E-30, -1.000000000000000000, 5.714932114448797613E-16 ) ) ;
#168 = ORIENTED_EDGE ( 'NONE', *, *, #71, .T. ) ;
#169 = APPROVAL_STATUS ( 'not_yet_approved' ) ;
#170 = EDGE_LOOP ( 'NONE', ( #190 ) ) ;
#171 = CC_DESIGN_APPROVAL ( #43, ( #37 ) ) ;
#172 = PLANE ( 'NONE',  #101 ) ;
#173 = CIRCLE ( 'NONE', #162, 4.254999999999988347 ) ;
#174 = CARTESIAN_POINT ( 'NONE',  ( 0.0000000000000000000, 0.0000000000000000000, 0.0000000000000000000 ) ) ;
#175 = FACE_OUTER_BOUND ( 'NONE', #219, .T. ) ;
#176 = CIRCLE ( 'NONE', #197, 2.999999999999988454 ) ;
#177 = DIRECTION ( 'NONE',  ( -2.896815897550727091E-30, 1.000000000000000000, -8.153811872981489652E-16 ) ) ;
#178 = ADVANCED_FACE ( 'NONE', ( #35, #115 ), #185, .T. ) ;
#179 = AXIS2_PLACEMENT_3D ( 'NONE', #174, #82, #228 ) ;
#180 = EDGE_CURVE ( 'NONE', #65, #65, #173, .T. ) ;
#181 = UNCERTAINTY_MEASURE_WITH_UNIT (LENGTH_MEASURE( 1.000000000000000082E-05 ), #121, 'distance_accuracy_value', 'NONE');
#182 = AXIS2_PLACEMENT_3D ( 'NONE', #85, #230, #68 ) ;
#183 = COORDINATED_UNIVERSAL_TIME_OFFSET ( 1, 0, .AHEAD. ) ;
#184 = PERSON_AND_ORGANIZATION_ROLE ( 'design_supplier' ) ;
#185 = CYLINDRICAL_SURFACE ( 'NONE', #5, 4.254999999999992788 ) ;
#186 = APPROVAL_DATE_TIME ( #53, #43 ) ;
#187 = ORIENTED_EDGE ( 'NONE', *, *, #118, .T. ) ;
#188 = FACE_BOUND ( 'NONE', #122, .T. ) ;
#189 = APPLICATION_PROTOCOL_DEFINITION ( 'international standard', 'config_control_design', 1994, #40 ) ;
#190 = ORIENTED_EDGE ( 'NONE', *, *, #180, .F. ) ;
#191 = DIRECTION ( 'NONE',  ( 0.0000000000000000000, 0.0000000000000000000, 1.000000000000000000 ) ) ;
#192 = DIRECTION ( 'NONE',  ( 0.0000000000000000000, 1.000000000000000000, 0.0000000000000000000 ) ) ;
#193 = CARTESIAN_POINT ( 'NONE',  ( -3.785471652766336288E-31, 3.966324865405185918, -1.084202172485504434E-16 ) ) ;
#194 = APPROVAL ( #169, 'UNSPECIFIED' ) ;
#195 = DIRECTION ( 'NONE',  ( 0.0000000000000000000, 1.000000000000000000, 0.0000000000000000000 ) ) ;
#196 = LOCAL_TIME ( 7, 34, 17.00000000000000000, #165 ) ;
#197 = AXIS2_PLACEMENT_3D ( 'NONE', #202, #55, #217 ) ;
#198 = CIRCLE ( 'NONE', #182, 4.254999999999998117 ) ;
#199 = PRODUCT ( '341900', '341900', '', ( #131 ) ) ;
#200 = EDGE_CURVE ( 'NONE', #138, #138, #62, .T. ) ;
#201 = DATE_TIME_ROLE ( 'creation_date' ) ;
#202 = CARTESIAN_POINT ( 'NONE',  ( 6.886566102748345277E-14, -2.415482231287484450E-15, 19.72390923627315829 ) ) ;
#203 = DATE_AND_TIME ( #74, #77 ) ;
#204 = EDGE_LOOP ( 'NONE', ( #94 ) ) ;
#205 = DIRECTION ( 'NONE',  ( 4.275831445896959482E-31, 1.000000000000000000, 1.224646799147353454E-16 ) ) ;
#206 = CARTESIAN_POINT ( 'NONE',  ( 0.0000000000000000000, 0.0000000000000000000, 0.0000000000000000000 ) ) ;
#207 = ORIENTED_EDGE ( 'NONE', *, *, #200, .F. ) ;
#208 = APPROVAL_DATE_TIME ( #61, #194 ) ;
#209 = FACE_OUTER_BOUND ( 'NONE', #22, .T. ) ;
#210 = DIRECTION ( 'NONE',  ( 3.491481338843133355E-15, -1.224646799147353454E-16, 1.000000000000000000 ) ) ;
#211 = CARTESIAN_POINT ( 'NONE',  ( 7.535690421588652242E-30, 1.233458094584880625E-30, 2.158307517715539887E-15 ) ) ;
#212 = CARTESIAN_POINT ( 'NONE',  ( 4.064084278413407478E-13, 2.999999999999997335, 116.4000000000000057 ) ) ;
#213 = FACE_OUTER_BOUND ( 'NONE', #96, .T. ) ;
#214 =( GEOMETRIC_REPRESENTATION_CONTEXT ( 3 ) GLOBAL_UNCERTAINTY_ASSIGNED_CONTEXT ( ( #181 ) ) GLOBAL_UNIT_ASSIGNED_CONTEXT ( ( #121, #99, #225 ) ) REPRESENTATION_CONTEXT ( 'NONE', 'WORKASPACE' ) );
#215 = EDGE_CURVE ( 'NONE', #227, #227, #198, .T. ) ;
#216 = DATE_AND_TIME ( #142, #103 ) ;
#217 = DIRECTION ( 'NONE',  ( 0.0000000000000000000, 1.000000000000000000, 0.0000000000000000000 ) ) ;
#218 = SECURITY_CLASSIFICATION_LEVEL ( 'unclassified' ) ;
#219 = EDGE_LOOP ( 'NONE', ( #168 ) ) ;
#220 = DIRECTION ( 'NONE',  ( -1.995357883035330833E-30, 1.000000000000000000, -5.714932114448797613E-16 ) ) ;
#221 = ORIENTED_EDGE ( 'NONE', *, *, #20, .T. ) ;
#222 = PERSON ( 'UNSPECIFIED', 'UNSPECIFIED', 'UNSPECIFIED', ('UNSPECIFIED'), ('UNSPECIFIED'), ('UNSPECIFIED') ) ;
#223 = AXIS2_PLACEMENT_3D ( 'NONE', #164, #19, #58 ) ;
#224 = ADVANCED_FACE ( 'NONE', ( #139, #213 ), #50, .T. ) ;
#225 =( NAMED_UNIT ( * ) SI_UNIT ( $, .STERADIAN. ) SOLID_ANGLE_UNIT ( ) );
#226 = DIRECTION ( 'NONE',  ( -1.995357883035331184E-30, 1.000000000000000000, -5.714932114448797613E-16 ) ) ;
#227 = VERTEX_POINT ( 'NONE', #153 ) ;
#228 = DIRECTION ( 'NONE',  ( 4.275831445896959482E-31, 1.000000000000000000, 1.224646799147353700E-16 ) ) ;
#229 = VERTEX_POINT ( 'NONE', #193 ) ;
#230 = DIRECTION ( 'NONE',  ( -3.491481338843133355E-15, -5.714932114448797613E-16, -1.000000000000000000 ) ) ;
#231 = CLOSED_SHELL ( 'NONE', ( #158, #178, #148, #97 ) ) ;
#232 = PRODUCT_DEFINITION ( 'UNKNOWN', '', #234, #32 ) ;
#233 = PRODUCT_DEFINITION_SHAPE ( 'NONE', 'NONE',  #232 ) ;
#234 = PRODUCT_DEFINITION_FORMATION_WITH_SPECIFIED_SOURCE ( 'ANY', '', #199, .NOT_KNOWN. ) ;
#235 = SHAPE_DEFINITION_REPRESENTATION ( #233, #29 ) ;
#236 = PERSON_AND_ORGANIZATION ( #222, #81 ) ;
#237 = DIRECTION ( 'NONE',  ( 3.491481338843133355E-15, 5.714932114448797613E-16, 1.000000000000000000 ) ) ;
#238 = PERSON_AND_ORGANIZATION ( #222, #81 ) ;
#239 = ORIENTED_EDGE ( 'NONE', *, *, #20, .F. ) ;
#240 = FACE_OUTER_BOUND ( 'NONE', #57, .T. ) ;
#241 = ORIENTED_EDGE ( 'NONE', *, *, #118, .F. ) ;
#242 = APPROVAL_ROLE ( '' ) ;
#243 = ADVANCED_FACE ( 'NONE', ( #10 ), #136, .T. ) ;
ENDSEC;
END-ISO-10303-21;
