ISO-10303-21;
HEADER;
FILE_DESCRIPTION (( 'STEP AP203' ),
    '1' );
FILE_NAME ('3419.step',
    '2021-12-06T12:58:53',
    ( '' ),
    ( '' ),
    'SwSTEP 2.0',
    'SolidWorks 2019',
    '' );
FILE_SCHEMA (( 'CONFIG_CONTROL_DESIGN' ));
ENDSEC;

DATA;
#1 = FACE_BOUND ( 'NONE', #22, .T. ) ;
#2 = APPROVAL_STATUS ( 'not_yet_approved' ) ;
#3 = ORIENTED_EDGE ( 'NONE', *, *, #153, .F. ) ;
#4 = PERSON_AND_ORGANIZATION ( #42, #126 ) ;
#5 = AXIS2_PLACEMENT_3D ( 'NONE', #73, #161, #131 ) ;
#6 = DIRECTION ( 'NONE',  ( 4.275831445896958607E-31, 1.000000000000000000, 1.224646799147353207E-16 ) ) ;
#7 = APPROVAL_STATUS ( 'not_yet_approved' ) ;
#8 = EDGE_CURVE ( 'NONE', #28, #28, #59, .T. ) ;
#9 =( NAMED_UNIT ( * ) PLANE_ANGLE_UNIT ( ) SI_UNIT ( $, .RADIAN. ) );
#10 = AXIS2_PLACEMENT_3D ( 'NONE', #35, #29, #20 ) ;
#11 = DIRECTION ( 'NONE',  ( 4.275831445896958607E-31, 1.000000000000000000, 1.224646799147353207E-16 ) ) ;
#12 = CC_DESIGN_PERSON_AND_ORGANIZATION_ASSIGNMENT ( #165, #142, ( #43 ) ) ;
#13 = DIRECTION ( 'NONE',  ( -4.275831445896958607E-31, -1.000000000000000000, -1.224646799147353207E-16 ) ) ;
#14 = FACE_OUTER_BOUND ( 'NONE', #149, .T. ) ;
#15 = DIRECTION ( 'NONE',  ( -3.491481338843133355E-15, 1.224646799147353207E-16, -1.000000000000000000 ) ) ;
#16 = MANIFOLD_SOLID_BREP ( 'Corps-Déplacer/Copier1', #52 ) ;
#17 = DESIGN_CONTEXT ( 'detailed design', #143, 'design' ) ;
#18 = APPROVAL_ROLE ( '' ) ;
#19 = CARTESIAN_POINT ( 'NONE',  ( 3.421138828918010427E-46, 4.000000000000000000, 0.0000000000000000000 ) ) ;
#20 = DIRECTION ( 'NONE',  ( 4.275831445896958607E-31, 1.000000000000000000, 1.224646799147353207E-16 ) ) ;
#21 = CC_DESIGN_PERSON_AND_ORGANIZATION_ASSIGNMENT ( #104, #150, ( #130 ) ) ;
#22 = EDGE_LOOP ( 'NONE', ( #119 ) ) ;
#23 = CARTESIAN_POINT ( 'NONE',  ( -6.413747168845438085E-30, 2.249639673992786193E-31, -1.836970198721029589E-15 ) ) ;
#24 = EDGE_LOOP ( 'NONE', ( #147 ) ) ;
#25 = PERSON_AND_ORGANIZATION ( #42, #126 ) ;
#26 = CALENDAR_DATE ( 2021, 6, 12 ) ;
#27 = CARTESIAN_POINT ( 'NONE',  ( 0.0000000000000000000, 15.00000000000000000, 0.0000000000000000000 ) ) ;
#28 = VERTEX_POINT ( 'NONE', #27 ) ;
#29 = DIRECTION ( 'NONE',  ( -3.491481338843133355E-15, 1.224646799147353207E-16, -1.000000000000000000 ) ) ;
#30 = CC_DESIGN_SECURITY_CLASSIFICATION ( #130, ( #55 ) ) ;
#31 = APPROVAL ( #2, 'UNSPECIFIED' ) ;
#32 = DATE_AND_TIME ( #46, #88 ) ;
#33 = APPROVAL_PERSON_ORGANIZATION ( #108, #61, #18 ) ;
#34 = DATE_AND_TIME ( #160, #145 ) ;
#35 = CARTESIAN_POINT ( 'NONE',  ( 0.0000000000000000000, 0.0000000000000000000, 0.0000000000000000000 ) ) ;
#36 = PLANE ( 'NONE',  #154 ) ;
#37 = CARTESIAN_POINT ( 'NONE',  ( -2.351707295243326971E-30, 4.000000000000000000, -6.735557395310442023E-16 ) ) ;
#38 = DATE_AND_TIME ( #26, #120 ) ;
#39 = EDGE_LOOP ( 'NONE', ( #85 ) ) ;
#40 = APPROVAL_DATE_TIME ( #34, #31 ) ;
#41 = FACE_OUTER_BOUND ( 'NONE', #63, .T. ) ;
#42 = PERSON ( 'UNSPECIFIED', 'UNSPECIFIED', 'UNSPECIFIED', ('UNSPECIFIED'), ('UNSPECIFIED'), ('UNSPECIFIED') ) ;
#43 = PRODUCT_DEFINITION ( 'UNKNOWN', '', #55, #17 ) ;
#44 = MECHANICAL_CONTEXT ( 'NONE', #166, 'mechanical' ) ;
#45 = DATE_AND_TIME ( #121, #48 ) ;
#46 = CALENDAR_DATE ( 2021, 6, 12 ) ;
#47 = DIRECTION ( 'NONE',  ( 0.0000000000000000000, 0.0000000000000000000, 1.000000000000000000 ) ) ;
#48 = LOCAL_TIME ( 13, 58, 53.00000000000000000, #66 ) ;
#49 = CARTESIAN_POINT ( 'NONE',  ( 1.047444401652939691E-14, 4.000000000000000000, 2.999999999999999112 ) ) ;
#50 = PERSON_AND_ORGANIZATION_ROLE ( 'design_supplier' ) ;
#51 = ORIENTED_EDGE ( 'NONE', *, *, #8, .F. ) ;
#52 = CLOSED_SHELL ( 'NONE', ( #144, #70, #65, #167 ) ) ;
#53 = CARTESIAN_POINT ( 'NONE',  ( 1.047444401652939375E-14, -3.673940397442057896E-16, 2.999999999999998224 ) ) ;
#54 = APPROVAL_ROLE ( '' ) ;
#55 = PRODUCT_DEFINITION_FORMATION_WITH_SPECIFIED_SOURCE ( 'ANY', '', #78, .NOT_KNOWN. ) ;
#56 = CARTESIAN_POINT ( 'NONE',  ( 0.0000000000000000000, 0.0000000000000000000, 0.0000000000000000000 ) ) ;
#57 = PERSON_AND_ORGANIZATION ( #42, #126 ) ;
#58 = AXIS2_PLACEMENT_3D ( 'NONE', #89, #116, #115 ) ;
#59 = CIRCLE ( 'NONE', #106, 15.00000000000000000 ) ;
#60 = CYLINDRICAL_SURFACE ( 'NONE', #58, 15.00000000000000000 ) ;
#61 = APPROVAL ( #152, 'UNSPECIFIED' ) ;
#62 = FACE_BOUND ( 'NONE', #24, .T. ) ;
#63 = EDGE_LOOP ( 'NONE', ( #156 ) ) ;
#64 = APPROVAL_PERSON_ORGANIZATION ( #57, #94, #54 ) ;
#65 = ADVANCED_FACE ( 'NONE', ( #62, #87 ), #36, .T. ) ;
#66 = COORDINATED_UNIVERSAL_TIME_OFFSET ( 1, 0, .AHEAD. ) ;
#67 = DATE_AND_TIME ( #151, #110 ) ;
#68 = CC_DESIGN_DATE_AND_TIME_ASSIGNMENT ( #45, #124, ( #43 ) ) ;
#69 = VERTEX_POINT ( 'NONE', #19 ) ;
#70 = ADVANCED_FACE ( 'NONE', ( #86, #14 ), #60, .T. ) ;
#71 = CIRCLE ( 'NONE', #74, 4.000000000000000000 ) ;
#72 = FACE_OUTER_BOUND ( 'NONE', #146, .T. ) ;
#73 = CARTESIAN_POINT ( 'NONE',  ( 1.047444401652939849E-14, -3.673940397442059375E-16, 2.999999999999999556 ) ) ;
#74 = AXIS2_PLACEMENT_3D ( 'NONE', #77, #15, #11 ) ;
#75 = ORIENTED_EDGE ( 'NONE', *, *, #153, .T. ) ;
#76 = APPROVAL_ROLE ( '' ) ;
#77 = CARTESIAN_POINT ( 'NONE',  ( -1.710332578358783092E-30, 5.999039130647430431E-32, -4.898587196589412829E-16 ) ) ;
#78 = PRODUCT ( '3419', '3419', '', ( #44 ) ) ;
#79 =( NAMED_UNIT ( * ) SI_UNIT ( $, .STERADIAN. ) SOLID_ANGLE_UNIT ( ) );
#80 = PERSON_AND_ORGANIZATION ( #42, #126 ) ;
#81 = VERTEX_POINT ( 'NONE', #125 ) ;
#82 = AXIS2_PLACEMENT_3D ( 'NONE', #53, #129, #105 ) ;
#83 = PRODUCT_RELATED_PRODUCT_CATEGORY ( 'detail', '', ( #78 ) ) ;
#84 = DATE_TIME_ROLE ( 'classification_date' ) ;
#85 = ORIENTED_EDGE ( 'NONE', *, *, #101, .F. ) ;
#86 = FACE_OUTER_BOUND ( 'NONE', #103, .T. ) ;
#87 = FACE_OUTER_BOUND ( 'NONE', #159, .T. ) ;
#88 = LOCAL_TIME ( 13, 58, 53.00000000000000000, #107 ) ;
#89 = CARTESIAN_POINT ( 'NONE',  ( 0.0000000000000000000, 0.0000000000000000000, 0.0000000000000000000 ) ) ;
#90 = COORDINATED_UNIVERSAL_TIME_OFFSET ( 1, 0, .AHEAD. ) ;
#91 = FACE_OUTER_BOUND ( 'NONE', #39, .T. ) ;
#92 = COORDINATED_UNIVERSAL_TIME_OFFSET ( 1, 0, .AHEAD. ) ;
#93 = PERSON_AND_ORGANIZATION_ROLE ( 'design_owner' ) ;
#94 = APPROVAL ( #7, 'UNSPECIFIED' ) ;
#95 = CARTESIAN_POINT ( 'NONE',  ( 1.047444401652940007E-14, 15.00000000000000000, 3.000000000000000000 ) ) ;
#96 = CC_DESIGN_APPROVAL ( #94, ( #55 ) ) ;
#97 = EDGE_CURVE ( 'NONE', #69, #69, #71, .T. ) ;
#98 = DIRECTION ( 'NONE',  ( 1.000000000000000000, 0.0000000000000000000, 0.0000000000000000000 ) ) ;
#99 = APPROVAL_PERSON_ORGANIZATION ( #111, #31, #76 ) ;
#100 = CYLINDRICAL_SURFACE ( 'NONE', #10, 4.000000000000000000 ) ;
#101 = EDGE_CURVE ( 'NONE', #81, #81, #122, .T. ) ;
#102 = DIRECTION ( 'NONE',  ( 3.491481338843133355E-15, -1.224646799147353207E-16, 1.000000000000000000 ) ) ;
#103 = EDGE_LOOP ( 'NONE', ( #75 ) ) ;
#104 = PERSON_AND_ORGANIZATION ( #42, #126 ) ;
#105 = DIRECTION ( 'NONE',  ( 4.108650548026103445E-31, 1.000000000000000000, 1.156482317317871478E-16 ) ) ;
#106 = AXIS2_PLACEMENT_3D ( 'NONE', #23, #133, #136 ) ;
#107 = COORDINATED_UNIVERSAL_TIME_OFFSET ( 1, 0, .AHEAD. ) ;
#108 = PERSON_AND_ORGANIZATION ( #42, #126 ) ;
#109 = APPROVAL_DATE_TIME ( #67, #61 ) ;
#110 = LOCAL_TIME ( 13, 58, 53.00000000000000000, #92 ) ;
#111 = PERSON_AND_ORGANIZATION ( #42, #126 ) ;
#112 = PERSON_AND_ORGANIZATION_ROLE ( 'creator' ) ;
#113 = ORIENTED_EDGE ( 'NONE', *, *, #8, .T. ) ;
#114 =( GEOMETRIC_REPRESENTATION_CONTEXT ( 3 ) GLOBAL_UNCERTAINTY_ASSIGNED_CONTEXT ( ( #140 ) ) GLOBAL_UNIT_ASSIGNED_CONTEXT ( ( #164, #9, #79 ) ) REPRESENTATION_CONTEXT ( 'NONE', 'WORKASPACE' ) );
#115 = DIRECTION ( 'NONE',  ( 4.275831445896958607E-31, 1.000000000000000000, 1.224646799147352961E-16 ) ) ;
#116 = DIRECTION ( 'NONE',  ( -3.491481338843133355E-15, 1.224646799147353207E-16, -1.000000000000000000 ) ) ;
#117 = COORDINATED_UNIVERSAL_TIME_OFFSET ( 1, 0, .AHEAD. ) ;
#118 = CC_DESIGN_DATE_AND_TIME_ASSIGNMENT ( #38, #84, ( #130 ) ) ;
#119 = ORIENTED_EDGE ( 'NONE', *, *, #97, .F. ) ;
#120 = LOCAL_TIME ( 13, 58, 53.00000000000000000, #117 ) ;
#121 = CALENDAR_DATE ( 2021, 6, 12 ) ;
#122 = CIRCLE ( 'NONE', #5, 4.000000000000000000 ) ;
#123 = APPLICATION_PROTOCOL_DEFINITION ( 'international standard', 'config_control_design', 1994, #166 ) ;
#124 = DATE_TIME_ROLE ( 'creation_date' ) ;
#125 = CARTESIAN_POINT ( 'NONE',  ( 1.047444401652940007E-14, 4.000000000000000000, 3.000000000000000000 ) ) ;
#126 = ORGANIZATION ( 'UNSPECIFIED', 'UNSPECIFIED', '' ) ;
#127 = CC_DESIGN_PERSON_AND_ORGANIZATION_ASSIGNMENT ( #25, #112, ( #55 ) ) ;
#128 = APPROVAL_DATE_TIME ( #32, #94 ) ;
#129 = DIRECTION ( 'NONE',  ( -3.491481338843133355E-15, 1.224646799147353207E-16, -1.000000000000000000 ) ) ;
#130 = SECURITY_CLASSIFICATION ( '', '', #135 ) ;
#131 = DIRECTION ( 'NONE',  ( 3.851859888774471706E-31, 1.000000000000000000, 1.084202172485504434E-16 ) ) ;
#132 = AXIS2_PLACEMENT_3D ( 'NONE', #56, #47, #98 ) ;
#133 = DIRECTION ( 'NONE',  ( -3.491481338843133355E-15, 1.224646799147353207E-16, -1.000000000000000000 ) ) ;
#134 = CC_DESIGN_PERSON_AND_ORGANIZATION_ASSIGNMENT ( #80, #93, ( #78 ) ) ;
#135 = SECURITY_CLASSIFICATION_LEVEL ( 'unclassified' ) ;
#136 = DIRECTION ( 'NONE',  ( 4.275831445896958607E-31, 1.000000000000000000, 1.224646799147352961E-16 ) ) ;
#137 = PRODUCT_DEFINITION_SHAPE ( 'NONE', 'NONE',  #43 ) ;
#138 = CC_DESIGN_APPROVAL ( #61, ( #43 ) ) ;
#139 = CC_DESIGN_PERSON_AND_ORGANIZATION_ASSIGNMENT ( #4, #50, ( #55 ) ) ;
#140 = UNCERTAINTY_MEASURE_WITH_UNIT (LENGTH_MEASURE( 1.000000000000000082E-05 ), #164, 'distance_accuracy_value', 'NONE');
#141 = VERTEX_POINT ( 'NONE', #95 ) ;
#142 = PERSON_AND_ORGANIZATION_ROLE ( 'creator' ) ;
#143 = APPLICATION_CONTEXT ( 'configuration controlled 3d designs of mechanical parts and assemblies' ) ;
#144 = ADVANCED_FACE ( 'NONE', ( #72, #1 ), #157, .T. ) ;
#145 = LOCAL_TIME ( 13, 58, 53.00000000000000000, #90 ) ;
#146 = EDGE_LOOP ( 'NONE', ( #113 ) ) ;
#147 = ORIENTED_EDGE ( 'NONE', *, *, #101, .T. ) ;
#148 = DIRECTION ( 'NONE',  ( -3.491481338843133355E-15, 1.224646799147353207E-16, -1.000000000000000000 ) ) ;
#149 = EDGE_LOOP ( 'NONE', ( #51 ) ) ;
#150 = PERSON_AND_ORGANIZATION_ROLE ( 'classification_officer' ) ;
#151 = CALENDAR_DATE ( 2021, 6, 12 ) ;
#152 = APPROVAL_STATUS ( 'not_yet_approved' ) ;
#153 = EDGE_CURVE ( 'NONE', #141, #141, #158, .T. ) ;
#154 = AXIS2_PLACEMENT_3D ( 'NONE', #49, #102, #13 ) ;
#155 = SHAPE_DEFINITION_REPRESENTATION ( #137, #169 ) ;
#156 = ORIENTED_EDGE ( 'NONE', *, *, #97, .T. ) ;
#157 = PLANE ( 'NONE',  #163 ) ;
#158 = CIRCLE ( 'NONE', #82, 15.00000000000000000 ) ;
#159 = EDGE_LOOP ( 'NONE', ( #3 ) ) ;
#160 = CALENDAR_DATE ( 2021, 6, 12 ) ;
#161 = DIRECTION ( 'NONE',  ( -3.491481338843133355E-15, 1.224646799147353207E-16, -1.000000000000000000 ) ) ;
#162 = APPLICATION_PROTOCOL_DEFINITION ( 'international standard', 'config_control_design', 1994, #143 ) ;
#163 = AXIS2_PLACEMENT_3D ( 'NONE', #37, #148, #6 ) ;
#164 =( LENGTH_UNIT ( ) NAMED_UNIT ( * ) SI_UNIT ( .MILLI., .METRE. ) );
#165 = PERSON_AND_ORGANIZATION ( #42, #126 ) ;
#166 = APPLICATION_CONTEXT ( 'configuration controlled 3d designs of mechanical parts and assemblies' ) ;
#167 = ADVANCED_FACE ( 'NONE', ( #41, #91 ), #100, .F. ) ;
#168 = CC_DESIGN_APPROVAL ( #31, ( #130 ) ) ;
#169 = ADVANCED_BREP_SHAPE_REPRESENTATION ( '3419', ( #16, #132 ), #114 ) ;
ENDSEC;
END-ISO-10303-21;
