ISO-10303-21;
HEADER;
FILE_DESCRIPTION (( 'STEP AP203' ),
    '1' );
FILE_NAME ('341890.step',
    '2021-11-26T06:34:17',
    ( '' ),
    ( '' ),
    'SwSTEP 2.0',
    'SolidWorks 2019',
    '' );
FILE_SCHEMA (( 'CONFIG_CONTROL_DESIGN' ));
ENDSEC;

DATA;
#1 = PERSON_AND_ORGANIZATION_ROLE ( 'creator' ) ;
#2 = DIRECTION ( 'NONE',  ( -3.491481338843133355E-15, -5.674843029836596119E-16, -1.000000000000000000 ) ) ;
#3 = DATE_AND_TIME ( #203, #100 ) ;
#4 = ORIENTED_EDGE ( 'NONE', *, *, #204, .T. ) ;
#5 = PERSON_AND_ORGANIZATION ( #144, #187 ) ;
#6 = FACE_OUTER_BOUND ( 'NONE', #66, .T. ) ;
#7 = EDGE_LOOP ( 'NONE', ( #230 ) ) ;
#8 = AXIS2_PLACEMENT_3D ( 'NONE', #108, #236, #91 ) ;
#9 = ORIENTED_EDGE ( 'NONE', *, *, #92, .T. ) ;
#10 = DIRECTION ( 'NONE',  ( 1.000000000000000000, 0.0000000000000000000, 0.0000000000000000000 ) ) ;
#11 = PERSON_AND_ORGANIZATION ( #144, #187 ) ;
#12 = CARTESIAN_POINT ( 'NONE',  ( 6.886566102748345277E-14, 2.999999999999985789, 19.72390923627315829 ) ) ;
#13 =( LENGTH_UNIT ( ) NAMED_UNIT ( * ) SI_UNIT ( .MILLI., .METRE. ) );
#14 = LOCAL_TIME ( 7, 34, 17.00000000000000000, #21 ) ;
#15 = APPROVAL_ROLE ( '' ) ;
#16 = CC_DESIGN_PERSON_AND_ORGANIZATION_ASSIGNMENT ( #22, #121, ( #227 ) ) ;
#17 = ORIENTED_EDGE ( 'NONE', *, *, #186, .F. ) ;
#18 = ORIENTED_EDGE ( 'NONE', *, *, #163, .T. ) ;
#19 = CONICAL_SURFACE ( 'NONE', #184, 3.916324865405187428, 0.5235987755982963732 ) ;
#20 = ADVANCED_FACE ( 'NONE', ( #206 ), #106, .T. ) ;
#21 = COORDINATED_UNIVERSAL_TIME_OFFSET ( 1, 0, .AHEAD. ) ;
#22 = PERSON_AND_ORGANIZATION ( #144, #187 ) ;
#23 = EDGE_LOOP ( 'NONE', ( #17 ) ) ;
#24 = DATE_TIME_ROLE ( 'classification_date' ) ;
#25 = APPROVAL ( #45, 'UNSPECIFIED' ) ;
#26 = DIRECTION ( 'NONE',  ( 1.981360853953850168E-30, -1.000000000000000000, 5.674843029836596119E-16 ) ) ;
#27 = DIRECTION ( 'NONE',  ( 0.0000000000000000000, 1.000000000000000000, 0.0000000000000000000 ) ) ;
#28 = DIRECTION ( 'NONE',  ( 3.491481338843133355E-15, -1.224646799147353454E-16, 1.000000000000000000 ) ) ;
#29 = ADVANCED_FACE ( 'NONE', ( #125 ), #141, .T. ) ;
#30 = DIRECTION ( 'NONE',  ( 4.275831445896959482E-31, 1.000000000000000000, 1.224646799147353454E-16 ) ) ;
#31 = DIRECTION ( 'NONE',  ( 0.0000000000000000000, 0.0000000000000000000, 1.000000000000000000 ) ) ;
#32 = CARTESIAN_POINT ( 'NONE',  ( -3.785471652766322713E-31, 3.916324865405187428, -1.084202172485504434E-16 ) ) ;
#33 = CIRCLE ( 'NONE', #129, 2.999999999999988454 ) ;
#34 = FACE_BOUND ( 'NONE', #39, .T. ) ;
#35 = CC_DESIGN_DATE_AND_TIME_ASSIGNMENT ( #205, #166, ( #38 ) ) ;
#36 = VERTEX_POINT ( 'NONE', #32 ) ;
#37 = PERSON_AND_ORGANIZATION ( #144, #187 ) ;
#38 = PRODUCT_DEFINITION ( 'UNKNOWN', '', #158, #146 ) ;
#39 = EDGE_LOOP ( 'NONE', ( #220 ) ) ;
#40 = AXIS2_PLACEMENT_3D ( 'NONE', #232, #198, #112 ) ;
#41 = PERSON_AND_ORGANIZATION ( #144, #187 ) ;
#42 = AXIS2_PLACEMENT_3D ( 'NONE', #231, #67, #223 ) ;
#43 = PERSON_AND_ORGANIZATION ( #144, #187 ) ;
#44 = FACE_BOUND ( 'NONE', #155, .T. ) ;
#45 = APPROVAL_STATUS ( 'not_yet_approved' ) ;
#46 = FACE_OUTER_BOUND ( 'NONE', #213, .T. ) ;
#47 = DIRECTION ( 'NONE',  ( -3.491481338843133355E-15, 1.224646799147353454E-16, -1.000000000000000000 ) ) ;
#48 = DIRECTION ( 'NONE',  ( 4.275831445896959482E-31, 1.000000000000000000, 1.224646799147353700E-16 ) ) ;
#49 = APPROVAL_PERSON_ORGANIZATION ( #37, #25, #149 ) ;
#50 = ORIENTED_EDGE ( 'NONE', *, *, #222, .T. ) ;
#51 = DIRECTION ( 'NONE',  ( 0.0000000000000000000, 1.000000000000000000, 0.0000000000000000000 ) ) ;
#52 = VERTEX_POINT ( 'NONE', #73 ) ;
#53 = CARTESIAN_POINT ( 'NONE',  ( 4.064084278413407478E-13, -1.425488874207519270E-14, 116.4000000000000057 ) ) ;
#54 = FACE_OUTER_BOUND ( 'NONE', #23, .T. ) ;
#55 =( NAMED_UNIT ( * ) PLANE_ANGLE_UNIT ( ) SI_UNIT ( $, .RADIAN. ) );
#56 = EDGE_LOOP ( 'NONE', ( #152 ) ) ;
#57 = ADVANCED_FACE ( 'NONE', ( #46, #85 ), #63, .T. ) ;
#58 = CALENDAR_DATE ( 2021, 26, 11 ) ;
#59 = COORDINATED_UNIVERSAL_TIME_OFFSET ( 1, 0, .AHEAD. ) ;
#60 = ORIENTED_EDGE ( 'NONE', *, *, #199, .F. ) ;
#61 = CC_DESIGN_PERSON_AND_ORGANIZATION_ASSIGNMENT ( #5, #147, ( #158 ) ) ;
#62 = CALENDAR_DATE ( 2021, 26, 11 ) ;
#63 = CYLINDRICAL_SURFACE ( 'NONE', #97, 3.000000000000000000 ) ;
#64 = SHAPE_DEFINITION_REPRESENTATION ( #79, #183 ) ;
#65 = DIRECTION ( 'NONE',  ( 0.0000000000000000000, 1.000000000000000000, 0.0000000000000000000 ) ) ;
#66 = EDGE_LOOP ( 'NONE', ( #101 ) ) ;
#67 = DIRECTION ( 'NONE',  ( -3.491481338843133355E-15, -5.674843029836596119E-16, -1.000000000000000000 ) ) ;
#68 = DIRECTION ( 'NONE',  ( 3.491481338843133355E-15, 5.674843029836596119E-16, 1.000000000000000000 ) ) ;
#69 = VERTEX_POINT ( 'NONE', #216 ) ;
#70 = ADVANCED_FACE ( 'NONE', ( #157, #88 ), #171, .T. ) ;
#71 = DIRECTION ( 'NONE',  ( -3.491481338843133355E-15, -5.674843029836596119E-16, -1.000000000000000000 ) ) ;
#72 = CONICAL_SURFACE ( 'NONE', #87, 4.205000000000000071, 0.5235987755982928205 ) ;
#73 = CARTESIAN_POINT ( 'NONE',  ( 6.157851622505461055E-14, 4.204999999999998295, 17.63678801315261069 ) ) ;
#74 = APPROVAL ( #133, 'UNSPECIFIED' ) ;
#75 = SECURITY_CLASSIFICATION_LEVEL ( 'unclassified' ) ;
#76 = CC_DESIGN_APPROVAL ( #74, ( #38 ) ) ;
#77 = ADVANCED_FACE ( 'NONE', ( #225 ), #168, .T. ) ;
#78 = DIRECTION ( 'NONE',  ( -3.491481338843133355E-15, 1.224646799147353454E-16, -1.000000000000000000 ) ) ;
#79 = PRODUCT_DEFINITION_SHAPE ( 'NONE', 'NONE',  #38 ) ;
#80 = CALENDAR_DATE ( 2021, 26, 11 ) ;
#81 = ORIENTED_EDGE ( 'NONE', *, *, #222, .F. ) ;
#82 = APPLICATION_PROTOCOL_DEFINITION ( 'international standard', 'config_control_design', 1994, #95 ) ;
#83 = MANIFOLD_SOLID_BREP ( 'Corps-Déplacer/Copier1[1]', #105 ) ;
#84 = CARTESIAN_POINT ( 'NONE',  ( -4.069099972478275808E-30, 3.916324865405187428, -1.165436551875293841E-15 ) ) ;
#85 = FACE_OUTER_BOUND ( 'NONE', #201, .T. ) ;
#86 = MANIFOLD_SOLID_BREP ( 'Corps-Déplacer/Copier1[2]', #202 ) ;
#87 = AXIS2_PLACEMENT_3D ( 'NONE', #188, #134, #65 ) ;
#88 = FACE_OUTER_BOUND ( 'NONE', #103, .T. ) ;
#89 = MECHANICAL_CONTEXT ( 'NONE', #137, 'mechanical' ) ;
#90 = CC_DESIGN_APPROVAL ( #25, ( #158 ) ) ;
#91 = DIRECTION ( 'NONE',  ( 0.0000000000000000000, 1.000000000000000000, 0.0000000000000000000 ) ) ;
#92 = EDGE_CURVE ( 'NONE', #195, #195, #117, .T. ) ;
#93 = CARTESIAN_POINT ( 'NONE',  ( 6.157851622505462317E-14, 1.000860035251447452E-14, 17.63678801315261424 ) ) ;
#94 =( NAMED_UNIT ( * ) SI_UNIT ( $, .STERADIAN. ) SOLID_ANGLE_UNIT ( ) );
#95 = APPLICATION_CONTEXT ( 'configuration controlled 3d designs of mechanical parts and assemblies' ) ;
#96 = DIRECTION ( 'NONE',  ( 0.0000000000000000000, 1.000000000000000000, 0.0000000000000000000 ) ) ;
#97 = AXIS2_PLACEMENT_3D ( 'NONE', #104, #47, #48 ) ;
#98 = AXIS2_PLACEMENT_3D ( 'NONE', #142, #130, #143 ) ;
#99 = PERSON_AND_ORGANIZATION ( #144, #187 ) ;
#100 = LOCAL_TIME ( 7, 34, 17.00000000000000000, #135 ) ;
#101 = ORIENTED_EDGE ( 'NONE', *, *, #163, .F. ) ;
#102 = CALENDAR_DATE ( 2021, 26, 11 ) ;
#103 = EDGE_LOOP ( 'NONE', ( #115 ) ) ;
#104 = CARTESIAN_POINT ( 'NONE',  ( 0.0000000000000000000, 0.0000000000000000000, 0.0000000000000000000 ) ) ;
#105 = CLOSED_SHELL ( 'NONE', ( #20, #243, #57, #113, #77 ) ) ;
#106 = PLANE ( 'NONE',  #209 ) ;
#107 = AXIS2_PLACEMENT_3D ( 'NONE', #84, #123, #228 ) ;
#108 = CARTESIAN_POINT ( 'NONE',  ( 4.085033166446466404E-13, -1.432836755002403758E-14, 117.0000000000000000 ) ) ;
#109 = APPROVAL_PERSON_ORGANIZATION ( #208, #74, #181 ) ;
#110 = VERTEX_POINT ( 'NONE', #174 ) ;
#111 = CIRCLE ( 'NONE', #98, 3.916324865405187428 ) ;
#112 = DIRECTION ( 'NONE',  ( 0.0000000000000000000, 1.000000000000000000, 0.0000000000000000000 ) ) ;
#113 = ADVANCED_FACE ( 'NONE', ( #44, #6 ), #72, .T. ) ;
#114 = ADVANCED_FACE ( 'NONE', ( #211 ), #190, .T. ) ;
#115 = ORIENTED_EDGE ( 'NONE', *, *, #92, .F. ) ;
#116 = AXIS2_PLACEMENT_3D ( 'NONE', #53, #234, #96 ) ;
#117 = CIRCLE ( 'NONE', #172, 4.204999999999998295 ) ;
#118 = APPROVAL_DATE_TIME ( #185, #219 ) ;
#119 = COORDINATED_UNIVERSAL_TIME_OFFSET ( 1, 0, .AHEAD. ) ;
#120 = EDGE_LOOP ( 'NONE', ( #122 ) ) ;
#121 = PERSON_AND_ORGANIZATION_ROLE ( 'classification_officer' ) ;
#122 = ORIENTED_EDGE ( 'NONE', *, *, #199, .T. ) ;
#123 = DIRECTION ( 'NONE',  ( -3.491481338843133355E-15, -5.674843029836596119E-16, -1.000000000000000000 ) ) ;
#124 = ORIENTED_EDGE ( 'NONE', *, *, #186, .T. ) ;
#125 = FACE_OUTER_BOUND ( 'NONE', #192, .T. ) ;
#126 = CARTESIAN_POINT ( 'NONE',  ( 7.381105614403287161E-30, 1.199680355796000333E-30, 2.114032669253486796E-15 ) ) ;
#127 = DIRECTION ( 'NONE',  ( 1.981360853953849468E-30, -1.000000000000000000, 5.674843029836596119E-16 ) ) ;
#128 = VERTEX_POINT ( 'NONE', #160 ) ;
#129 = AXIS2_PLACEMENT_3D ( 'NONE', #176, #197, #51 ) ;
#130 = DIRECTION ( 'NONE',  ( -3.491481338843133355E-15, -5.674843029836596119E-16, -1.000000000000000000 ) ) ;
#131 = LOCAL_TIME ( 7, 34, 17.00000000000000000, #189 ) ;
#132 = APPROVAL_DATE_TIME ( #3, #74 ) ;
#133 = APPROVAL_STATUS ( 'not_yet_approved' ) ;
#134 = DIRECTION ( 'NONE',  ( -3.491481338843133355E-15, 1.224646799147353454E-16, -1.000000000000000000 ) ) ;
#135 = COORDINATED_UNIVERSAL_TIME_OFFSET ( 1, 0, .AHEAD. ) ;
#136 = PRODUCT_RELATED_PRODUCT_CATEGORY ( 'detail', '', ( #207 ) ) ;
#137 = APPLICATION_CONTEXT ( 'configuration controlled 3d designs of mechanical parts and assemblies' ) ;
#138 = CIRCLE ( 'NONE', #8, 2.400000000000011902 ) ;
#139 = CARTESIAN_POINT ( 'NONE',  ( 6.157851622505461055E-14, -2.159883598754775613E-15, 17.63678801315261069 ) ) ;
#140 = EDGE_LOOP ( 'NONE', ( #4 ) ) ;
#141 = PLANE ( 'NONE',  #240 ) ;
#142 = CARTESIAN_POINT ( 'NONE',  ( 7.381105614403287161E-30, 1.199680355796000333E-30, 2.114032669253486796E-15 ) ) ;
#143 = DIRECTION ( 'NONE',  ( -1.981360853953849818E-30, 1.000000000000000000, -5.674843029836596119E-16 ) ) ;
#144 = PERSON ( 'UNSPECIFIED', 'UNSPECIFIED', 'UNSPECIFIED', ('UNSPECIFIED'), ('UNSPECIFIED'), ('UNSPECIFIED') ) ;
#145 =( GEOMETRIC_REPRESENTATION_CONTEXT ( 3 ) GLOBAL_UNCERTAINTY_ASSIGNED_CONTEXT ( ( #177 ) ) GLOBAL_UNIT_ASSIGNED_CONTEXT ( ( #13, #55, #94 ) ) REPRESENTATION_CONTEXT ( 'NONE', 'WORKASPACE' ) );
#146 = DESIGN_CONTEXT ( 'detailed design', #95, 'design' ) ;
#147 = PERSON_AND_ORGANIZATION_ROLE ( 'creator' ) ;
#148 = EDGE_LOOP ( 'NONE', ( #18 ) ) ;
#149 = APPROVAL_ROLE ( '' ) ;
#150 = DIRECTION ( 'NONE',  ( -2.015241796742887387E-30, 1.000000000000000000, -5.672401378045447798E-16 ) ) ;
#151 = APPROVAL_DATE_TIME ( #153, #25 ) ;
#152 = ORIENTED_EDGE ( 'NONE', *, *, #204, .F. ) ;
#153 = DATE_AND_TIME ( #62, #196 ) ;
#154 = DIRECTION ( 'NONE',  ( -4.275831445896959482E-31, -1.000000000000000000, -1.224646799147353454E-16 ) ) ;
#155 = EDGE_LOOP ( 'NONE', ( #50 ) ) ;
#156 = CC_DESIGN_PERSON_AND_ORGANIZATION_ASSIGNMENT ( #11, #226, ( #207 ) ) ;
#157 = FACE_OUTER_BOUND ( 'NONE', #120, .T. ) ;
#158 = PRODUCT_DEFINITION_FORMATION_WITH_SPECIFIED_SOURCE ( 'ANY', '', #207, .NOT_KNOWN. ) ;
#159 = DIRECTION ( 'NONE',  ( -2.931260795262388470E-30, 1.000000000000000000, -8.250765640793397799E-16 ) ) ;
#160 = CARTESIAN_POINT ( 'NONE',  ( 4.064084278413407478E-13, 2.999999999999997335, 116.4000000000000057 ) ) ;
#161 = FACE_BOUND ( 'NONE', #140, .T. ) ;
#162 = DATE_AND_TIME ( #58, #131 ) ;
#163 = EDGE_CURVE ( 'NONE', #69, #69, #217, .T. ) ;
#164 = CIRCLE ( 'NONE', #116, 3.000000000000011990 ) ;
#165 = CARTESIAN_POINT ( 'NONE',  ( 1.745740669421574763E-15, 2.837421514918310878E-16, 0.5000000000000023315 ) ) ;
#166 = DATE_TIME_ROLE ( 'creation_date' ) ;
#167 = CARTESIAN_POINT ( 'NONE',  ( 4.085033166446466404E-13, -1.432836755002403442E-14, 117.0000000000000000 ) ) ;
#168 = PLANE ( 'NONE',  #239 ) ;
#169 = DIRECTION ( 'NONE',  ( 3.491481338843133355E-15, 5.674843029836596119E-16, 1.000000000000000000 ) ) ;
#170 = CIRCLE ( 'NONE', #242, 4.204999999999988525 ) ;
#171 = CYLINDRICAL_SURFACE ( 'NONE', #42, 4.204999999999993854 ) ;
#172 = AXIS2_PLACEMENT_3D ( 'NONE', #165, #2, #150 ) ;
#173 = APPLICATION_PROTOCOL_DEFINITION ( 'international standard', 'config_control_design', 1994, #137 ) ;
#174 = CARTESIAN_POINT ( 'NONE',  ( 4.085033166446466404E-13, 2.399999999999997691, 117.0000000000000000 ) ) ;
#175 = CC_DESIGN_DATE_AND_TIME_ASSIGNMENT ( #162, #24, ( #227 ) ) ;
#176 = CARTESIAN_POINT ( 'NONE',  ( 6.886566102748345277E-14, -2.415482231287484450E-15, 19.72390923627315829 ) ) ;
#177 = UNCERTAINTY_MEASURE_WITH_UNIT (LENGTH_MEASURE( 1.000000000000000082E-05 ), #13, 'distance_accuracy_value', 'NONE');
#178 = VERTEX_POINT ( 'NONE', #12 ) ;
#179 = AXIS2_PLACEMENT_3D ( 'NONE', #200, #31, #10 ) ;
#180 = CC_DESIGN_PERSON_AND_ORGANIZATION_ASSIGNMENT ( #41, #1, ( #38 ) ) ;
#181 = APPROVAL_ROLE ( '' ) ;
#182 = APPROVAL_STATUS ( 'not_yet_approved' ) ;
#183 = ADVANCED_BREP_SHAPE_REPRESENTATION ( '341890', ( #83, #86, #179 ), #145 ) ;
#184 = AXIS2_PLACEMENT_3D ( 'NONE', #126, #68, #127 ) ;
#185 = DATE_AND_TIME ( #102, #214 ) ;
#186 = EDGE_CURVE ( 'NONE', #128, #128, #164, .T. ) ;
#187 = ORGANIZATION ( 'UNSPECIFIED', 'UNSPECIFIED', '' ) ;
#188 = CARTESIAN_POINT ( 'NONE',  ( 6.157851622505461055E-14, -2.159883598754775613E-15, 17.63678801315261069 ) ) ;
#189 = COORDINATED_UNIVERSAL_TIME_OFFSET ( 1, 0, .AHEAD. ) ;
#190 = PLANE ( 'NONE',  #107 ) ;
#191 = DIRECTION ( 'NONE',  ( -3.491481338843133355E-15, 1.224646799147353454E-16, -1.000000000000000000 ) ) ;
#192 = EDGE_LOOP ( 'NONE', ( #60 ) ) ;
#193 = CARTESIAN_POINT ( 'NONE',  ( 6.157851622505462317E-14, 4.204999999999998295, 17.63678801315261424 ) ) ;
#194 = EDGE_CURVE ( 'NONE', #36, #36, #111, .T. ) ;
#195 = VERTEX_POINT ( 'NONE', #237 ) ;
#196 = LOCAL_TIME ( 7, 34, 17.00000000000000000, #59 ) ;
#197 = DIRECTION ( 'NONE',  ( -3.491481338843133355E-15, 1.224646799147353454E-16, -1.000000000000000000 ) ) ;
#198 = DIRECTION ( 'NONE',  ( -3.491481338843133355E-15, 1.224646799147353454E-16, -1.000000000000000000 ) ) ;
#199 = EDGE_CURVE ( 'NONE', #52, #52, #170, .T. ) ;
#200 = CARTESIAN_POINT ( 'NONE',  ( 0.0000000000000000000, 0.0000000000000000000, 0.0000000000000000000 ) ) ;
#201 = EDGE_LOOP ( 'NONE', ( #81 ) ) ;
#202 = CLOSED_SHELL ( 'NONE', ( #29, #70, #235, #114 ) ) ;
#203 = CALENDAR_DATE ( 2021, 26, 11 ) ;
#204 = EDGE_CURVE ( 'NONE', #110, #110, #138, .T. ) ;
#205 = DATE_AND_TIME ( #80, #14 ) ;
#206 = FACE_OUTER_BOUND ( 'NONE', #56, .T. ) ;
#207 = PRODUCT ( '341890', '341890', '', ( #89 ) ) ;
#208 = PERSON_AND_ORGANIZATION ( #144, #187 ) ;
#209 = AXIS2_PLACEMENT_3D ( 'NONE', #167, #28, #154 ) ;
#210 = CC_DESIGN_SECURITY_CLASSIFICATION ( #227, ( #158 ) ) ;
#211 = FACE_OUTER_BOUND ( 'NONE', #7, .T. ) ;
#212 = EDGE_LOOP ( 'NONE', ( #9 ) ) ;
#213 = EDGE_LOOP ( 'NONE', ( #124 ) ) ;
#214 = LOCAL_TIME ( 7, 34, 17.00000000000000000, #119 ) ;
#215 = CARTESIAN_POINT ( 'NONE',  ( 6.157851622505462317E-14, 1.000860035251447610E-14, 17.63678801315261424 ) ) ;
#216 = CARTESIAN_POINT ( 'NONE',  ( 6.157851622505461055E-14, 4.204999999999998295, 17.63678801315261069 ) ) ;
#217 = CIRCLE ( 'NONE', #238, 4.205000000000000071 ) ;
#218 = FACE_OUTER_BOUND ( 'NONE', #212, .T. ) ;
#219 = APPROVAL ( #182, 'UNSPECIFIED' ) ;
#220 = ORIENTED_EDGE ( 'NONE', *, *, #194, .F. ) ;
#221 = APPROVAL_PERSON_ORGANIZATION ( #99, #219, #15 ) ;
#222 = EDGE_CURVE ( 'NONE', #178, #178, #33, .T. ) ;
#223 = DIRECTION ( 'NONE',  ( -1.981360853953850168E-30, 1.000000000000000000, -5.674843029836596119E-16 ) ) ;
#224 = PERSON_AND_ORGANIZATION_ROLE ( 'design_supplier' ) ;
#225 = FACE_OUTER_BOUND ( 'NONE', #148, .T. ) ;
#226 = PERSON_AND_ORGANIZATION_ROLE ( 'design_owner' ) ;
#227 = SECURITY_CLASSIFICATION ( '', '', #75 ) ;
#228 = DIRECTION ( 'NONE',  ( -1.981360853953850168E-30, 1.000000000000000000, -5.674843029836596119E-16 ) ) ;
#229 = CONICAL_SURFACE ( 'NONE', #40, 3.000000000000011990, 0.7853981633974453924 ) ;
#230 = ORIENTED_EDGE ( 'NONE', *, *, #194, .T. ) ;
#231 = CARTESIAN_POINT ( 'NONE',  ( 0.0000000000000000000, 0.0000000000000000000, 0.0000000000000000000 ) ) ;
#232 = CARTESIAN_POINT ( 'NONE',  ( 4.064084278413407478E-13, -1.425488874207519270E-14, 116.4000000000000057 ) ) ;
#233 = CC_DESIGN_PERSON_AND_ORGANIZATION_ASSIGNMENT ( #43, #224, ( #158 ) ) ;
#234 = DIRECTION ( 'NONE',  ( -3.491481338843133355E-15, 1.224646799147353454E-16, -1.000000000000000000 ) ) ;
#235 = ADVANCED_FACE ( 'NONE', ( #218, #34 ), #19, .T. ) ;
#236 = DIRECTION ( 'NONE',  ( -3.491481338843133355E-15, 1.224646799147353454E-16, -1.000000000000000000 ) ) ;
#237 = CARTESIAN_POINT ( 'NONE',  ( 1.745740669421566283E-15, 4.204999999999998295, 0.4999999999999998890 ) ) ;
#238 = AXIS2_PLACEMENT_3D ( 'NONE', #139, #191, #27 ) ;
#239 = AXIS2_PLACEMENT_3D ( 'NONE', #193, #78, #30 ) ;
#240 = AXIS2_PLACEMENT_3D ( 'NONE', #215, #169, #26 ) ;
#241 = CC_DESIGN_APPROVAL ( #219, ( #227 ) ) ;
#242 = AXIS2_PLACEMENT_3D ( 'NONE', #93, #71, #159 ) ;
#243 = ADVANCED_FACE ( 'NONE', ( #161, #54 ), #229, .T. ) ;
ENDSEC;
END-ISO-10303-21;
