ISO-10303-21;
HEADER;
FILE_DESCRIPTION (( 'STEP AP203' ),
    '1' );
FILE_NAME ('341880.step',
    '2021-11-26T06:34:16',
    ( '' ),
    ( '' ),
    'SwSTEP 2.0',
    'SolidWorks 2019',
    '' );
FILE_SCHEMA (( 'CONFIG_CONTROL_DESIGN' ));
ENDSEC;

DATA;
#1 = CARTESIAN_POINT ( 'NONE',  ( 7.228449379023527429E-30, 1.166649958859231726E-30, 2.070310185710057523E-15 ) ) ;
#2 = AXIS2_PLACEMENT_3D ( 'NONE', #228, #112, #191 ) ;
#3 = ADVANCED_FACE ( 'NONE', ( #56 ), #55, .T. ) ;
#4 = COORDINATED_UNIVERSAL_TIME_OFFSET ( 1, 0, .AHEAD. ) ;
#5 = PERSON_AND_ORGANIZATION ( #85, #240 ) ;
#6 = AXIS2_PLACEMENT_3D ( 'NONE', #204, #33, #124 ) ;
#7 = CARTESIAN_POINT ( 'NONE',  ( 4.085033166446466404E-13, 2.399999999999997691, 117.0000000000000000 ) ) ;
#8 = LOCAL_TIME ( 7, 34, 16.00000000000000000, #9 ) ;
#9 = COORDINATED_UNIVERSAL_TIME_OFFSET ( 1, 0, .AHEAD. ) ;
#10 = ADVANCED_FACE ( 'NONE', ( #222 ), #187, .T. ) ;
#11 = DATE_TIME_ROLE ( 'creation_date' ) ;
#12 = COORDINATED_UNIVERSAL_TIME_OFFSET ( 1, 0, .AHEAD. ) ;
#13 = AXIS2_PLACEMENT_3D ( 'NONE', #79, #22, #131 ) ;
#14 = ORIENTED_EDGE ( 'NONE', *, *, #202, .T. ) ;
#15 = DIRECTION ( 'NONE',  ( -3.491481338843133355E-15, -5.635145723147297303E-16, -1.000000000000000000 ) ) ;
#16 = EDGE_LOOP ( 'NONE', ( #144 ) ) ;
#17 = APPROVAL_PERSON_ORGANIZATION ( #5, #69, #192 ) ;
#18 = DIRECTION ( 'NONE',  ( -3.491481338843133355E-15, -5.635145723147297303E-16, -1.000000000000000000 ) ) ;
#19 = EDGE_CURVE ( 'NONE', #127, #127, #170, .T. ) ;
#20 = CARTESIAN_POINT ( 'NONE',  ( 6.188088737868237360E-14, -2.170489351142025267E-15, 17.72339055353106119 ) ) ;
#21 = EDGE_LOOP ( 'NONE', ( #93 ) ) ;
#22 = DIRECTION ( 'NONE',  ( -3.491481338843133355E-15, 1.224646799147353454E-16, -1.000000000000000000 ) ) ;
#23 = FACE_OUTER_BOUND ( 'NONE', #16, .T. ) ;
#24 = AXIS2_PLACEMENT_3D ( 'NONE', #57, #154, #195 ) ;
#25 = PERSON_AND_ORGANIZATION_ROLE ( 'design_owner' ) ;
#26 = APPROVAL ( #182, 'UNSPECIFIED' ) ;
#27 = AXIS2_PLACEMENT_3D ( 'NONE', #94, #172, #173 ) ;
#28 = ADVANCED_FACE ( 'NONE', ( #89, #208 ), #236, .T. ) ;
#29 = EDGE_LOOP ( 'NONE', ( #84 ) ) ;
#30 = ADVANCED_BREP_SHAPE_REPRESENTATION ( '341880', ( #231, #156, #27 ), #58 ) ;
#31 = PERSON_AND_ORGANIZATION_ROLE ( 'creator' ) ;
#32 = ORIENTED_EDGE ( 'NONE', *, *, #217, .T. ) ;
#33 = DIRECTION ( 'NONE',  ( -3.491481338843133355E-15, -5.635145723147297303E-16, -1.000000000000000000 ) ) ;
#34 = DIRECTION ( 'NONE',  ( -3.491481338843133355E-15, -5.635145723147297303E-16, -1.000000000000000000 ) ) ;
#35 = CIRCLE ( 'NONE', #165, 3.866324865405185829 ) ;
#36 = EDGE_LOOP ( 'NONE', ( #138 ) ) ;
#37 = APPLICATION_CONTEXT ( 'configuration controlled 3d designs of mechanical parts and assemblies' ) ;
#38 = APPROVAL_PERSON_ORGANIZATION ( #179, #163, #101 ) ;
#39 = DIRECTION ( 'NONE',  ( -3.491481338843133355E-15, 1.224646799147353454E-16, -1.000000000000000000 ) ) ;
#40 = ADVANCED_FACE ( 'NONE', ( #50 ), #53, .T. ) ;
#41 = DIRECTION ( 'NONE',  ( -1.967500613403048334E-30, 1.000000000000000000, -5.635145723147297303E-16 ) ) ;
#42 = VERTEX_POINT ( 'NONE', #225 ) ;
#43 = APPROVAL_DATE_TIME ( #82, #69 ) ;
#44 = EDGE_CURVE ( 'NONE', #42, #42, #139, .T. ) ;
#45 = EDGE_LOOP ( 'NONE', ( #73 ) ) ;
#46 = CALENDAR_DATE ( 2021, 26, 11 ) ;
#47 = ORIENTED_EDGE ( 'NONE', *, *, #202, .F. ) ;
#48 = COORDINATED_UNIVERSAL_TIME_OFFSET ( 1, 0, .AHEAD. ) ;
#49 = PRODUCT_DEFINITION ( 'UNKNOWN', '', #198, #119 ) ;
#50 = FACE_OUTER_BOUND ( 'NONE', #135, .T. ) ;
#51 = EDGE_CURVE ( 'NONE', #62, #62, #35, .T. ) ;
#52 = DIRECTION ( 'NONE',  ( 4.275831445896959482E-31, 1.000000000000000000, 1.224646799147353700E-16 ) ) ;
#53 = PLANE ( 'NONE',  #99 ) ;
#54 = AXIS2_PLACEMENT_3D ( 'NONE', #190, #15, #105 ) ;
#55 = PLANE ( 'NONE',  #71 ) ;
#56 = FACE_OUTER_BOUND ( 'NONE', #180, .T. ) ;
#57 = CARTESIAN_POINT ( 'NONE',  ( 6.188088737868237360E-14, 9.987388847739975211E-15, 17.72339055353106119 ) ) ;
#58 =( GEOMETRIC_REPRESENTATION_CONTEXT ( 3 ) GLOBAL_UNCERTAINTY_ASSIGNED_CONTEXT ( ( #142 ) ) GLOBAL_UNIT_ASSIGNED_CONTEXT ( ( #177, #61, #129 ) ) REPRESENTATION_CONTEXT ( 'NONE', 'WORKASPACE' ) );
#59 = VERTEX_POINT ( 'NONE', #193 ) ;
#60 = CC_DESIGN_PERSON_AND_ORGANIZATION_ASSIGNMENT ( #120, #162, ( #157 ) ) ;
#61 =( NAMED_UNIT ( * ) PLANE_ANGLE_UNIT ( ) SI_UNIT ( $, .RADIAN. ) );
#62 = VERTEX_POINT ( 'NONE', #95 ) ;
#63 = PERSON_AND_ORGANIZATION_ROLE ( 'design_supplier' ) ;
#64 = CC_DESIGN_PERSON_AND_ORGANIZATION_ASSIGNMENT ( #141, #31, ( #198 ) ) ;
#65 = ORIENTED_EDGE ( 'NONE', *, *, #217, .F. ) ;
#66 = CONICAL_SURFACE ( 'NONE', #125, 3.866324865405185829, 0.5235987755982977054 ) ;
#67 = CC_DESIGN_APPROVAL ( #69, ( #49 ) ) ;
#68 = DATE_TIME_ROLE ( 'classification_date' ) ;
#69 = APPROVAL ( #210, 'UNSPECIFIED' ) ;
#70 = EDGE_LOOP ( 'NONE', ( #65 ) ) ;
#71 = AXIS2_PLACEMENT_3D ( 'NONE', #90, #239, #126 ) ;
#72 = EDGE_CURVE ( 'NONE', #113, #113, #96, .T. ) ;
#73 = ORIENTED_EDGE ( 'NONE', *, *, #19, .F. ) ;
#74 = FACE_OUTER_BOUND ( 'NONE', #118, .T. ) ;
#75 = DIRECTION ( 'NONE',  ( 0.0000000000000000000, 1.000000000000000000, 0.0000000000000000000 ) ) ;
#76 = DIRECTION ( 'NONE',  ( 0.0000000000000000000, 1.000000000000000000, 0.0000000000000000000 ) ) ;
#77 = AXIS2_PLACEMENT_3D ( 'NONE', #108, #209, #76 ) ;
#78 = CYLINDRICAL_SURFACE ( 'NONE', #54, 4.154999999999992255 ) ;
#79 = CARTESIAN_POINT ( 'NONE',  ( 4.064084278413407478E-13, -1.425488874207519270E-14, 116.4000000000000057 ) ) ;
#80 = APPLICATION_CONTEXT ( 'configuration controlled 3d designs of mechanical parts and assemblies' ) ;
#81 = APPLICATION_PROTOCOL_DEFINITION ( 'international standard', 'config_control_design', 1994, #37 ) ;
#82 = DATE_AND_TIME ( #110, #8 ) ;
#83 = APPROVAL_DATE_TIME ( #137, #163 ) ;
#84 = ORIENTED_EDGE ( 'NONE', *, *, #44, .T. ) ;
#85 = PERSON ( 'UNSPECIFIED', 'UNSPECIFIED', 'UNSPECIFIED', ('UNSPECIFIED'), ('UNSPECIFIED'), ('UNSPECIFIED') ) ;
#86 = CALENDAR_DATE ( 2021, 26, 11 ) ;
#87 = CIRCLE ( 'NONE', #2, 4.155000000000000249 ) ;
#88 = EDGE_LOOP ( 'NONE', ( #183 ) ) ;
#89 = FACE_BOUND ( 'NONE', #36, .T. ) ;
#90 = CARTESIAN_POINT ( 'NONE',  ( 4.085033166446466404E-13, -1.432836755002403442E-14, 117.0000000000000000 ) ) ;
#91 = DIRECTION ( 'NONE',  ( -1.967500613403048334E-30, 1.000000000000000000, -5.635145723147296317E-16 ) ) ;
#92 = FACE_BOUND ( 'NONE', #243, .T. ) ;
#93 = ORIENTED_EDGE ( 'NONE', *, *, #72, .T. ) ;
#94 = CARTESIAN_POINT ( 'NONE',  ( 0.0000000000000000000, 0.0000000000000000000, 0.0000000000000000000 ) ) ;
#95 = CARTESIAN_POINT ( 'NONE',  ( -3.785471652766336288E-31, 3.866324865405185829, -1.084202172485504434E-16 ) ) ;
#96 = CIRCLE ( 'NONE', #151, 2.400000000000011902 ) ;
#97 = CC_DESIGN_APPROVAL ( #163, ( #198 ) ) ;
#98 = VERTEX_POINT ( 'NONE', #133 ) ;
#99 = AXIS2_PLACEMENT_3D ( 'NONE', #241, #107, #148 ) ;
#100 = PERSON_AND_ORGANIZATION ( #85, #240 ) ;
#101 = APPROVAL_ROLE ( '' ) ;
#102 = ORIENTED_EDGE ( 'NONE', *, *, #51, .F. ) ;
#103 = DIRECTION ( 'NONE',  ( -3.491481338843133355E-15, 1.224646799147353454E-16, -1.000000000000000000 ) ) ;
#104 = CC_DESIGN_DATE_AND_TIME_ASSIGNMENT ( #161, #68, ( #157 ) ) ;
#105 = DIRECTION ( 'NONE',  ( -1.967500613403048334E-30, 1.000000000000000000, -5.635145723147297303E-16 ) ) ;
#106 = EDGE_LOOP ( 'NONE', ( #14 ) ) ;
#107 = DIRECTION ( 'NONE',  ( -3.491481338843133355E-15, 1.224646799147353454E-16, -1.000000000000000000 ) ) ;
#108 = CARTESIAN_POINT ( 'NONE',  ( 4.064084278413407478E-13, -1.425488874207519270E-14, 116.4000000000000057 ) ) ;
#109 = PERSON_AND_ORGANIZATION ( #85, #240 ) ;
#110 = CALENDAR_DATE ( 2021, 26, 11 ) ;
#111 = CC_DESIGN_PERSON_AND_ORGANIZATION_ASSIGNMENT ( #100, #63, ( #198 ) ) ;
#112 = DIRECTION ( 'NONE',  ( -3.491481338843133355E-15, 1.224646799147353454E-16, -1.000000000000000000 ) ) ;
#113 = VERTEX_POINT ( 'NONE', #7 ) ;
#114 = CONICAL_SURFACE ( 'NONE', #13, 3.000000000000011990, 0.7853981633974453924 ) ;
#115 = ORIENTED_EDGE ( 'NONE', *, *, #51, .T. ) ;
#116 = LOCAL_TIME ( 7, 34, 16.00000000000000000, #48 ) ;
#117 = SECURITY_CLASSIFICATION_LEVEL ( 'unclassified' ) ;
#118 = EDGE_LOOP ( 'NONE', ( #184 ) ) ;
#119 = DESIGN_CONTEXT ( 'detailed design', #80, 'design' ) ;
#120 = PERSON_AND_ORGANIZATION ( #85, #240 ) ;
#121 = ADVANCED_FACE ( 'NONE', ( #238, #92 ), #66, .T. ) ;
#122 = CARTESIAN_POINT ( 'NONE',  ( 6.886566102748345277E-14, -2.415482231287484450E-15, 19.72390923627315829 ) ) ;
#123 = CARTESIAN_POINT ( 'NONE',  ( 6.188088737868238623E-14, 9.987388847739978367E-15, 17.72339055353106474 ) ) ;
#124 = DIRECTION ( 'NONE',  ( -1.946788391438361842E-30, 1.000000000000000000, -5.740661322426259296E-16 ) ) ;
#125 = AXIS2_PLACEMENT_3D ( 'NONE', #166, #153, #224 ) ;
#126 = DIRECTION ( 'NONE',  ( -4.275831445896959482E-31, -1.000000000000000000, -1.224646799147353454E-16 ) ) ;
#127 = VERTEX_POINT ( 'NONE', #134 ) ;
#128 = LOCAL_TIME ( 7, 34, 16.00000000000000000, #12 ) ;
#129 =( NAMED_UNIT ( * ) SI_UNIT ( $, .STERADIAN. ) SOLID_ANGLE_UNIT ( ) );
#130 = PRODUCT_RELATED_PRODUCT_CATEGORY ( 'detail', '', ( #232 ) ) ;
#131 = DIRECTION ( 'NONE',  ( 0.0000000000000000000, 1.000000000000000000, 0.0000000000000000000 ) ) ;
#132 = AXIS2_PLACEMENT_3D ( 'NONE', #218, #150, #41 ) ;
#133 = CARTESIAN_POINT ( 'NONE',  ( 6.886566102748345277E-14, 2.999999999999985789, 19.72390923627315829 ) ) ;
#134 = CARTESIAN_POINT ( 'NONE',  ( 1.745740669421566678E-15, 4.154999999999998472, 0.4999999999999998890 ) ) ;
#135 = EDGE_LOOP ( 'NONE', ( #32 ) ) ;
#136 = EDGE_CURVE ( 'NONE', #98, #98, #206, .T. ) ;
#137 = DATE_AND_TIME ( #86, #116 ) ;
#138 = ORIENTED_EDGE ( 'NONE', *, *, #136, .T. ) ;
#139 = CIRCLE ( 'NONE', #77, 3.000000000000011990 ) ;
#140 = CC_DESIGN_SECURITY_CLASSIFICATION ( #157, ( #198 ) ) ;
#141 = PERSON_AND_ORGANIZATION ( #85, #240 ) ;
#142 = UNCERTAINTY_MEASURE_WITH_UNIT (LENGTH_MEASURE( 1.000000000000000082E-05 ), #177, 'distance_accuracy_value', 'NONE');
#143 = DATE_AND_TIME ( #46, #215 ) ;
#144 = ORIENTED_EDGE ( 'NONE', *, *, #44, .F. ) ;
#145 = ORIENTED_EDGE ( 'NONE', *, *, #72, .F. ) ;
#146 = AXIS2_PLACEMENT_3D ( 'NONE', #20, #39, #168 ) ;
#147 = CARTESIAN_POINT ( 'NONE',  ( 0.0000000000000000000, 0.0000000000000000000, 0.0000000000000000000 ) ) ;
#148 = DIRECTION ( 'NONE',  ( 4.275831445896959482E-31, 1.000000000000000000, 1.224646799147353454E-16 ) ) ;
#149 = ADVANCED_FACE ( 'NONE', ( #171, #185 ), #78, .T. ) ;
#150 = DIRECTION ( 'NONE',  ( -3.491481338843133355E-15, -5.635145723147297303E-16, -1.000000000000000000 ) ) ;
#151 = AXIS2_PLACEMENT_3D ( 'NONE', #189, #103, #75 ) ;
#152 = ADVANCED_FACE ( 'NONE', ( #203, #74 ), #169, .T. ) ;
#153 = DIRECTION ( 'NONE',  ( 3.491481338843133355E-15, 5.635145723147297303E-16, 1.000000000000000000 ) ) ;
#154 = DIRECTION ( 'NONE',  ( 3.491481338843133355E-15, 5.635145723147297303E-16, 1.000000000000000000 ) ) ;
#155 = FACE_OUTER_BOUND ( 'NONE', #213, .T. ) ;
#156 = MANIFOLD_SOLID_BREP ( 'Corps-Déplacer/Copier1[2]', #242 ) ;
#157 = SECURITY_CLASSIFICATION ( '', '', #117 ) ;
#158 = PLANE ( 'NONE',  #24 ) ;
#159 = MECHANICAL_CONTEXT ( 'NONE', #37, 'mechanical' ) ;
#160 = PERSON_AND_ORGANIZATION ( #85, #240 ) ;
#161 = DATE_AND_TIME ( #164, #176 ) ;
#162 = PERSON_AND_ORGANIZATION_ROLE ( 'classification_officer' ) ;
#163 = APPROVAL ( #197, 'UNSPECIFIED' ) ;
#164 = CALENDAR_DATE ( 2021, 26, 11 ) ;
#165 = AXIS2_PLACEMENT_3D ( 'NONE', #1, #18, #91 ) ;
#166 = CARTESIAN_POINT ( 'NONE',  ( 7.228449379023527429E-30, 1.166649958859231726E-30, 2.070310185710057523E-15 ) ) ;
#167 = CC_DESIGN_APPROVAL ( #26, ( #157 ) ) ;
#168 = DIRECTION ( 'NONE',  ( 0.0000000000000000000, 1.000000000000000000, 0.0000000000000000000 ) ) ;
#169 = CYLINDRICAL_SURFACE ( 'NONE', #223, 3.000000000000000000 ) ;
#170 = CIRCLE ( 'NONE', #6, 4.154999999999998472 ) ;
#171 = FACE_OUTER_BOUND ( 'NONE', #106, .T. ) ;
#172 = DIRECTION ( 'NONE',  ( 0.0000000000000000000, 0.0000000000000000000, 1.000000000000000000 ) ) ;
#173 = DIRECTION ( 'NONE',  ( 1.000000000000000000, 0.0000000000000000000, 0.0000000000000000000 ) ) ;
#174 = CARTESIAN_POINT ( 'NONE',  ( 6.188088737868237360E-14, 4.154999999999997584, 17.72339055353106119 ) ) ;
#175 = AXIS2_PLACEMENT_3D ( 'NONE', #123, #34, #186 ) ;
#176 = LOCAL_TIME ( 7, 34, 16.00000000000000000, #233 ) ;
#177 =( LENGTH_UNIT ( ) NAMED_UNIT ( * ) SI_UNIT ( .MILLI., .METRE. ) );
#178 = APPLICATION_PROTOCOL_DEFINITION ( 'international standard', 'config_control_design', 1994, #80 ) ;
#179 = PERSON_AND_ORGANIZATION ( #85, #240 ) ;
#180 = EDGE_LOOP ( 'NONE', ( #145 ) ) ;
#181 = SHAPE_DEFINITION_REPRESENTATION ( #201, #30 ) ;
#182 = APPROVAL_STATUS ( 'not_yet_approved' ) ;
#183 = ORIENTED_EDGE ( 'NONE', *, *, #19, .T. ) ;
#184 = ORIENTED_EDGE ( 'NONE', *, *, #136, .F. ) ;
#185 = FACE_OUTER_BOUND ( 'NONE', #45, .T. ) ;
#186 = DIRECTION ( 'NONE',  ( -2.966534691715607288E-30, 1.000000000000000000, -8.350052832620036380E-16 ) ) ;
#187 = PLANE ( 'NONE',  #132 ) ;
#188 = CC_DESIGN_PERSON_AND_ORGANIZATION_ASSIGNMENT ( #109, #25, ( #232 ) ) ;
#189 = CARTESIAN_POINT ( 'NONE',  ( 4.085033166446466404E-13, -1.432836755002403758E-14, 117.0000000000000000 ) ) ;
#190 = CARTESIAN_POINT ( 'NONE',  ( 0.0000000000000000000, 0.0000000000000000000, 0.0000000000000000000 ) ) ;
#191 = DIRECTION ( 'NONE',  ( 0.0000000000000000000, 1.000000000000000000, 0.0000000000000000000 ) ) ;
#192 = APPROVAL_ROLE ( '' ) ;
#193 = CARTESIAN_POINT ( 'NONE',  ( 6.188088737868237360E-14, 4.154999999999997584, 17.72339055353106119 ) ) ;
#194 = CIRCLE ( 'NONE', #175, 4.154999999999986926 ) ;
#195 = DIRECTION ( 'NONE',  ( 1.967500613403048334E-30, -1.000000000000000000, 5.635145723147297303E-16 ) ) ;
#196 = CC_DESIGN_PERSON_AND_ORGANIZATION_ASSIGNMENT ( #160, #229, ( #49 ) ) ;
#197 = APPROVAL_STATUS ( 'not_yet_approved' ) ;
#198 = PRODUCT_DEFINITION_FORMATION_WITH_SPECIFIED_SOURCE ( 'ANY', '', #232, .NOT_KNOWN. ) ;
#199 = CALENDAR_DATE ( 2021, 26, 11 ) ;
#200 = EDGE_LOOP ( 'NONE', ( #115 ) ) ;
#201 = PRODUCT_DEFINITION_SHAPE ( 'NONE', 'NONE',  #49 ) ;
#202 = EDGE_CURVE ( 'NONE', #59, #59, #194, .T. ) ;
#203 = FACE_OUTER_BOUND ( 'NONE', #29, .T. ) ;
#204 = CARTESIAN_POINT ( 'NONE',  ( 1.745740669421574763E-15, 2.817572861573661470E-16, 0.5000000000000023315 ) ) ;
#205 = DIRECTION ( 'NONE',  ( 0.0000000000000000000, 1.000000000000000000, 0.0000000000000000000 ) ) ;
#206 = CIRCLE ( 'NONE', #234, 2.999999999999988454 ) ;
#207 = APPROVAL_PERSON_ORGANIZATION ( #214, #26, #235 ) ;
#208 = FACE_OUTER_BOUND ( 'NONE', #70, .T. ) ;
#209 = DIRECTION ( 'NONE',  ( -3.491481338843133355E-15, 1.224646799147353454E-16, -1.000000000000000000 ) ) ;
#210 = APPROVAL_STATUS ( 'not_yet_approved' ) ;
#211 = ADVANCED_FACE ( 'NONE', ( #155 ), #158, .T. ) ;
#212 = VERTEX_POINT ( 'NONE', #174 ) ;
#213 = EDGE_LOOP ( 'NONE', ( #47 ) ) ;
#214 = PERSON_AND_ORGANIZATION ( #85, #240 ) ;
#215 = LOCAL_TIME ( 7, 34, 16.00000000000000000, #4 ) ;
#216 = DATE_AND_TIME ( #199, #128 ) ;
#217 = EDGE_CURVE ( 'NONE', #212, #212, #87, .T. ) ;
#218 = CARTESIAN_POINT ( 'NONE',  ( -3.992771854788395942E-30, 3.866324865405185829, -1.143575310103579205E-15 ) ) ;
#219 = DIRECTION ( 'NONE',  ( -3.491481338843133355E-15, 1.224646799147353454E-16, -1.000000000000000000 ) ) ;
#220 = CC_DESIGN_DATE_AND_TIME_ASSIGNMENT ( #143, #11, ( #49 ) ) ;
#221 = DIRECTION ( 'NONE',  ( -3.491481338843133355E-15, 1.224646799147353454E-16, -1.000000000000000000 ) ) ;
#222 = FACE_OUTER_BOUND ( 'NONE', #200, .T. ) ;
#223 = AXIS2_PLACEMENT_3D ( 'NONE', #147, #219, #52 ) ;
#224 = DIRECTION ( 'NONE',  ( 1.967500613403048334E-30, -1.000000000000000000, 5.635145723147296317E-16 ) ) ;
#225 = CARTESIAN_POINT ( 'NONE',  ( 4.064084278413407478E-13, 2.999999999999997335, 116.4000000000000057 ) ) ;
#226 = ADVANCED_FACE ( 'NONE', ( #227, #23 ), #114, .T. ) ;
#227 = FACE_BOUND ( 'NONE', #21, .T. ) ;
#228 = CARTESIAN_POINT ( 'NONE',  ( 6.188088737868237360E-14, -2.170489351142025267E-15, 17.72339055353106119 ) ) ;
#229 = PERSON_AND_ORGANIZATION_ROLE ( 'creator' ) ;
#230 = APPROVAL_DATE_TIME ( #216, #26 ) ;
#231 = MANIFOLD_SOLID_BREP ( 'Corps-Déplacer/Copier1[1]', #237 ) ;
#232 = PRODUCT ( '341880', '341880', '', ( #159 ) ) ;
#233 = COORDINATED_UNIVERSAL_TIME_OFFSET ( 1, 0, .AHEAD. ) ;
#234 = AXIS2_PLACEMENT_3D ( 'NONE', #122, #221, #205 ) ;
#235 = APPROVAL_ROLE ( '' ) ;
#236 = CONICAL_SURFACE ( 'NONE', #146, 4.155000000000000249, 0.5235987755982933756 ) ;
#237 = CLOSED_SHELL ( 'NONE', ( #3, #226, #152, #28, #40 ) ) ;
#238 = FACE_OUTER_BOUND ( 'NONE', #88, .T. ) ;
#239 = DIRECTION ( 'NONE',  ( 3.491481338843133355E-15, -1.224646799147353454E-16, 1.000000000000000000 ) ) ;
#240 = ORGANIZATION ( 'UNSPECIFIED', 'UNSPECIFIED', '' ) ;
#241 = CARTESIAN_POINT ( 'NONE',  ( 6.188088737868237360E-14, 4.154999999999997584, 17.72339055353106119 ) ) ;
#242 = CLOSED_SHELL ( 'NONE', ( #211, #149, #121, #10 ) ) ;
#243 = EDGE_LOOP ( 'NONE', ( #102 ) ) ;
ENDSEC;
END-ISO-10303-21;
