ISO-10303-21;
HEADER;
FILE_DESCRIPTION (( 'STEP AP203' ),
    '1' );
FILE_NAME ('341870.step',
    '2021-11-26T06:34:16',
    ( '' ),
    ( '' ),
    'SwSTEP 2.0',
    'SolidWorks 2019',
    '' );
FILE_SCHEMA (( 'CONFIG_CONTROL_DESIGN' ));
ENDSEC;

DATA;
#1 = PERSON_AND_ORGANIZATION_ROLE ( 'creator' ) ;
#2 = EDGE_LOOP ( 'NONE', ( #41 ) ) ;
#3 = ADVANCED_FACE ( 'NONE', ( #230, #42 ), #127, .T. ) ;
#4 = CLOSED_SHELL ( 'NONE', ( #74, #213, #3, #89 ) ) ;
#5 = CARTESIAN_POINT ( 'NONE',  ( 7.077693581937456922E-30, 1.134349519173337187E-30, 2.027132009327186746E-15 ) ) ;
#6 = EDGE_LOOP ( 'NONE', ( #10 ) ) ;
#7 = APPLICATION_CONTEXT ( 'configuration controlled 3d designs of mechanical parts and assemblies' ) ;
#8 = ORGANIZATION ( 'UNSPECIFIED', 'UNSPECIFIED', '' ) ;
#9 = ORIENTED_EDGE ( 'NONE', *, *, #150, .T. ) ;
#10 = ORIENTED_EDGE ( 'NONE', *, *, #204, .F. ) ;
#11 = PRODUCT_RELATED_PRODUCT_CATEGORY ( 'detail', '', ( #117 ) ) ;
#12 = DIRECTION ( 'NONE',  ( -3.491481338843133355E-15, -5.595834479224825276E-16, -1.000000000000000000 ) ) ;
#13 = CARTESIAN_POINT ( 'NONE',  ( 1.745740669421566283E-15, 4.104999999999996874, 0.4999999999999998890 ) ) ;
#14 = CARTESIAN_POINT ( 'NONE',  ( 6.218325853231012404E-14, 4.104999999999997762, 17.80999309390950458 ) ) ;
#15 = FACE_OUTER_BOUND ( 'NONE', #100, .T. ) ;
#16 = CIRCLE ( 'NONE', #59, 4.104999999999996874 ) ;
#17 = CC_DESIGN_DATE_AND_TIME_ASSIGNMENT ( #37, #18, ( #112 ) ) ;
#18 = DATE_TIME_ROLE ( 'creation_date' ) ;
#19 = PERSON_AND_ORGANIZATION ( #184, #8 ) ;
#20 = CC_DESIGN_APPROVAL ( #35, ( #71 ) ) ;
#21 = APPLICATION_CONTEXT ( 'configuration controlled 3d designs of mechanical parts and assemblies' ) ;
#22 = ORIENTED_EDGE ( 'NONE', *, *, #141, .T. ) ;
#23 = COORDINATED_UNIVERSAL_TIME_OFFSET ( 1, 0, .AHEAD. ) ;
#24 = DIRECTION ( 'NONE',  ( 3.491481338843133355E-15, 5.595834479224825276E-16, 1.000000000000000000 ) ) ;
#25 = AXIS2_PLACEMENT_3D ( 'NONE', #209, #119, #66 ) ;
#26 = CC_DESIGN_DATE_AND_TIME_ASSIGNMENT ( #134, #128, ( #71 ) ) ;
#27 = CARTESIAN_POINT ( 'NONE',  ( 6.218325853231012404E-14, -2.181095103529274526E-15, 17.80999309390950458 ) ) ;
#28 = PLANE ( 'NONE',  #122 ) ;
#29 = DIRECTION ( 'NONE',  ( -1.953775165946846468E-30, 1.000000000000000000, -5.595834479224825276E-16 ) ) ;
#30 = DIRECTION ( 'NONE',  ( -3.491481338843133355E-15, -5.595834479224825276E-16, -1.000000000000000000 ) ) ;
#31 = PLANE ( 'NONE',  #142 ) ;
#32 = CIRCLE ( 'NONE', #156, 2.400000000000011902 ) ;
#33 = CARTESIAN_POINT ( 'NONE',  ( 6.218325853231011142E-14, 4.104999999999997762, 17.80999309390950103 ) ) ;
#34 = CARTESIAN_POINT ( 'NONE',  ( 4.064084278413407478E-13, -1.425488874207519270E-14, 116.4000000000000057 ) ) ;
#35 = APPROVAL ( #39, 'UNSPECIFIED' ) ;
#36 = CONICAL_SURFACE ( 'NONE', #173, 3.000000000000011990, 0.7853981633974453924 ) ;
#37 = DATE_AND_TIME ( #206, #217 ) ;
#38 = LOCAL_TIME ( 7, 34, 16.00000000000000000, #113 ) ;
#39 = APPROVAL_STATUS ( 'not_yet_approved' ) ;
#40 = EDGE_CURVE ( 'NONE', #105, #105, #205, .T. ) ;
#41 = ORIENTED_EDGE ( 'NONE', *, *, #40, .F. ) ;
#42 = FACE_BOUND ( 'NONE', #131, .T. ) ;
#43 = FACE_OUTER_BOUND ( 'NONE', #138, .T. ) ;
#44 = DIRECTION ( 'NONE',  ( 4.275831445896959482E-31, 1.000000000000000000, 1.224646799147353700E-16 ) ) ;
#45 = CARTESIAN_POINT ( 'NONE',  ( 1.745740669421574369E-15, 2.797917239612424964E-16, 0.5000000000000022204 ) ) ;
#46 = ADVANCED_FACE ( 'NONE', ( #211, #97 ), #216, .T. ) ;
#47 = CIRCLE ( 'NONE', #188, 3.000000000000011990 ) ;
#48 = APPROVAL_PERSON_ORGANIZATION ( #111, #61, #55 ) ;
#49 = VERTEX_POINT ( 'NONE', #109 ) ;
#50 =( NAMED_UNIT ( * ) PLANE_ANGLE_UNIT ( ) SI_UNIT ( $, .RADIAN. ) );
#51 = DIRECTION ( 'NONE',  ( -3.491481338843133355E-15, 1.224646799147353454E-16, -1.000000000000000000 ) ) ;
#52 = ADVANCED_FACE ( 'NONE', ( #231 ), #118, .T. ) ;
#53 = PERSON_AND_ORGANIZATION ( #184, #8 ) ;
#54 = ADVANCED_FACE ( 'NONE', ( #101, #86 ), #120, .T. ) ;
#55 = APPROVAL_ROLE ( '' ) ;
#56 = AXIS2_PLACEMENT_3D ( 'NONE', #84, #174, #228 ) ;
#57 = PERSON_AND_ORGANIZATION ( #184, #8 ) ;
#58 = DATE_AND_TIME ( #130, #38 ) ;
#59 = AXIS2_PLACEMENT_3D ( 'NONE', #45, #30, #102 ) ;
#60 = ORIENTED_EDGE ( 'NONE', *, *, #125, .T. ) ;
#61 = APPROVAL ( #221, 'UNSPECIFIED' ) ;
#62 = DIRECTION ( 'NONE',  ( -3.491481338843133355E-15, -5.595834479224825276E-16, -1.000000000000000000 ) ) ;
#63 = PRODUCT_DEFINITION_FORMATION_WITH_SPECIFIED_SOURCE ( 'ANY', '', #117, .NOT_KNOWN. ) ;
#64 = DIRECTION ( 'NONE',  ( 3.491481338843133355E-15, 5.595834479224825276E-16, 1.000000000000000000 ) ) ;
#65 = CC_DESIGN_PERSON_AND_ORGANIZATION_ASSIGNMENT ( #53, #1, ( #63 ) ) ;
#66 = DIRECTION ( 'NONE',  ( 0.0000000000000000000, 1.000000000000000000, 0.0000000000000000000 ) ) ;
#67 = EDGE_LOOP ( 'NONE', ( #158 ) ) ;
#68 = DIRECTION ( 'NONE',  ( 1.000000000000000000, 0.0000000000000000000, 0.0000000000000000000 ) ) ;
#69 = CIRCLE ( 'NONE', #129, 4.104999999999987992 ) ;
#70 = FACE_OUTER_BOUND ( 'NONE', #195, .T. ) ;
#71 = SECURITY_CLASSIFICATION ( '', '', #96 ) ;
#72 = FACE_OUTER_BOUND ( 'NONE', #197, .T. ) ;
#73 = VERTEX_POINT ( 'NONE', #124 ) ;
#74 = ADVANCED_FACE ( 'NONE', ( #212 ), #85, .T. ) ;
#75 = PERSON_AND_ORGANIZATION_ROLE ( 'design_supplier' ) ;
#76 = LOCAL_TIME ( 7, 34, 16.00000000000000000, #23 ) ;
#77 = PERSON_AND_ORGANIZATION_ROLE ( 'creator' ) ;
#78 = ORIENTED_EDGE ( 'NONE', *, *, #150, .F. ) ;
#79 = PRODUCT_DEFINITION_SHAPE ( 'NONE', 'NONE',  #112 ) ;
#80 = APPROVAL_DATE_TIME ( #58, #61 ) ;
#81 = APPROVAL_ROLE ( '' ) ;
#82 = ORIENTED_EDGE ( 'NONE', *, *, #227, .T. ) ;
#83 = AXIS2_PLACEMENT_3D ( 'NONE', #87, #175, #44 ) ;
#84 = CARTESIAN_POINT ( 'NONE',  ( 4.085033166446466404E-13, -1.432836755002403442E-14, 117.0000000000000000 ) ) ;
#85 = PLANE ( 'NONE',  #233 ) ;
#86 = FACE_OUTER_BOUND ( 'NONE', #2, .T. ) ;
#87 = CARTESIAN_POINT ( 'NONE',  ( 0.0000000000000000000, 0.0000000000000000000, 0.0000000000000000000 ) ) ;
#88 = EDGE_LOOP ( 'NONE', ( #99 ) ) ;
#89 = ADVANCED_FACE ( 'NONE', ( #43 ), #28, .T. ) ;
#90 = CARTESIAN_POINT ( 'NONE',  ( 6.886566102748345277E-14, 2.999999999999985789, 19.72390923627315829 ) ) ;
#91 = DIRECTION ( 'NONE',  ( -3.491481338843133355E-15, -5.595834479224825276E-16, -1.000000000000000000 ) ) ;
#92 = DIRECTION ( 'NONE',  ( -3.491481338843133355E-15, -5.595834479224825276E-16, -1.000000000000000000 ) ) ;
#93 = DIRECTION ( 'NONE',  ( 0.0000000000000000000, 1.000000000000000000, 0.0000000000000000000 ) ) ;
#94 = APPROVAL_ROLE ( '' ) ;
#95 = AXIS2_PLACEMENT_3D ( 'NONE', #220, #187, #68 ) ;
#96 = SECURITY_CLASSIFICATION_LEVEL ( 'unclassified' ) ;
#97 = FACE_OUTER_BOUND ( 'NONE', #67, .T. ) ;
#98 = AXIS2_PLACEMENT_3D ( 'NONE', #27, #137, #214 ) ;
#99 = ORIENTED_EDGE ( 'NONE', *, *, #40, .T. ) ;
#100 = EDGE_LOOP ( 'NONE', ( #154 ) ) ;
#101 = FACE_OUTER_BOUND ( 'NONE', #215, .T. ) ;
#102 = DIRECTION ( 'NONE',  ( -1.970500795718976011E-30, 1.000000000000000000, -5.546466655833278890E-16 ) ) ;
#103 = CARTESIAN_POINT ( 'NONE',  ( 4.085033166446466404E-13, 2.399999999999997691, 117.0000000000000000 ) ) ;
#104 = CC_DESIGN_SECURITY_CLASSIFICATION ( #71, ( #63 ) ) ;
#105 = VERTEX_POINT ( 'NONE', #90 ) ;
#106 =( LENGTH_UNIT ( ) NAMED_UNIT ( * ) SI_UNIT ( .MILLI., .METRE. ) );
#107 = CC_DESIGN_PERSON_AND_ORGANIZATION_ASSIGNMENT ( #57, #224, ( #117 ) ) ;
#108 = FACE_BOUND ( 'NONE', #177, .T. ) ;
#109 = CARTESIAN_POINT ( 'NONE',  ( -3.785471652766322713E-31, 3.816324865405184230, -1.084202172485504434E-16 ) ) ;
#110 = AXIS2_PLACEMENT_3D ( 'NONE', #179, #12, #186 ) ;
#111 = PERSON_AND_ORGANIZATION ( #184, #8 ) ;
#112 = PRODUCT_DEFINITION ( 'UNKNOWN', '', #63, #146 ) ;
#113 = COORDINATED_UNIVERSAL_TIME_OFFSET ( 1, 0, .AHEAD. ) ;
#114 = APPROVAL_PERSON_ORGANIZATION ( #149, #236, #94 ) ;
#115 = PERSON_AND_ORGANIZATION ( #184, #8 ) ;
#116 = ORIENTED_EDGE ( 'NONE', *, *, #141, .F. ) ;
#117 = PRODUCT ( '341870', '341870', '', ( #165 ) ) ;
#118 = PLANE ( 'NONE',  #56 ) ;
#119 = DIRECTION ( 'NONE',  ( -3.491481338843133355E-15, 1.224646799147353454E-16, -1.000000000000000000 ) ) ;
#120 = CYLINDRICAL_SURFACE ( 'NONE', #83, 3.000000000000000000 ) ;
#121 = DIRECTION ( 'NONE',  ( -3.491481338843133355E-15, 1.224646799147353454E-16, -1.000000000000000000 ) ) ;
#122 = AXIS2_PLACEMENT_3D ( 'NONE', #159, #62, #29 ) ;
#123 = APPLICATION_PROTOCOL_DEFINITION ( 'international standard', 'config_control_design', 1994, #7 ) ;
#124 = CARTESIAN_POINT ( 'NONE',  ( 4.064084278413407478E-13, 2.999999999999997335, 116.4000000000000057 ) ) ;
#125 = EDGE_CURVE ( 'NONE', #147, #147, #199, .T. ) ;
#126 = CARTESIAN_POINT ( 'NONE',  ( 0.0000000000000000000, 0.0000000000000000000, 0.0000000000000000000 ) ) ;
#127 = CONICAL_SURFACE ( 'NONE', #153, 3.816324865405184230, 0.5235987755982978165 ) ;
#128 = DATE_TIME_ROLE ( 'classification_date' ) ;
#129 = AXIS2_PLACEMENT_3D ( 'NONE', #238, #92, #219 ) ;
#130 = CALENDAR_DATE ( 2021, 26, 11 ) ;
#131 = EDGE_LOOP ( 'NONE', ( #116 ) ) ;
#132 = EDGE_CURVE ( 'NONE', #218, #218, #16, .T. ) ;
#133 = CALENDAR_DATE ( 2021, 26, 11 ) ;
#134 = DATE_AND_TIME ( #133, #76 ) ;
#135 = DIRECTION ( 'NONE',  ( 1.953775165946845767E-30, -1.000000000000000000, 5.595834479224825276E-16 ) ) ;
#136 = EDGE_LOOP ( 'NONE', ( #78 ) ) ;
#137 = DIRECTION ( 'NONE',  ( -3.491481338843133355E-15, 1.224646799147353454E-16, -1.000000000000000000 ) ) ;
#138 = EDGE_LOOP ( 'NONE', ( #22 ) ) ;
#139 = DIRECTION ( 'NONE',  ( 0.0000000000000000000, 1.000000000000000000, 0.0000000000000000000 ) ) ;
#140 = VERTEX_POINT ( 'NONE', #103 ) ;
#141 = EDGE_CURVE ( 'NONE', #49, #49, #226, .T. ) ;
#142 = AXIS2_PLACEMENT_3D ( 'NONE', #33, #51, #235 ) ;
#143 = CARTESIAN_POINT ( 'NONE',  ( 6.218325853231012404E-14, 4.104999999999997762, 17.80999309390950458 ) ) ;
#144 = DIRECTION ( 'NONE',  ( 0.0000000000000000000, 1.000000000000000000, 0.0000000000000000000 ) ) ;
#145 = DIRECTION ( 'NONE',  ( -3.491481338843133355E-15, 1.224646799147353454E-16, -1.000000000000000000 ) ) ;
#146 = DESIGN_CONTEXT ( 'detailed design', #21, 'design' ) ;
#147 = VERTEX_POINT ( 'NONE', #14 ) ;
#148 = PERSON_AND_ORGANIZATION_ROLE ( 'classification_officer' ) ;
#149 = PERSON_AND_ORGANIZATION ( #184, #8 ) ;
#150 = EDGE_CURVE ( 'NONE', #73, #73, #47, .T. ) ;
#151 = MANIFOLD_SOLID_BREP ( 'Corps-Déplacer/Copier1[1]', #239 ) ;
#152 = MANIFOLD_SOLID_BREP ( 'Corps-Déplacer/Copier1[2]', #4 ) ;
#153 = AXIS2_PLACEMENT_3D ( 'NONE', #5, #24, #135 ) ;
#154 = ORIENTED_EDGE ( 'NONE', *, *, #204, .T. ) ;
#155 = ADVANCED_FACE ( 'NONE', ( #108, #234 ), #36, .T. ) ;
#156 = AXIS2_PLACEMENT_3D ( 'NONE', #182, #202, #144 ) ;
#157 = ORIENTED_EDGE ( 'NONE', *, *, #227, .F. ) ;
#158 = ORIENTED_EDGE ( 'NONE', *, *, #125, .F. ) ;
#159 = CARTESIAN_POINT ( 'NONE',  ( -3.917393956245360689E-30, 3.816324865405184230, -1.121986221912143816E-15 ) ) ;
#160 = ADVANCED_BREP_SHAPE_REPRESENTATION ( '341870', ( #151, #152, #95 ), #180 ) ;
#161 = ORIENTED_EDGE ( 'NONE', *, *, #132, .F. ) ;
#162 =( NAMED_UNIT ( * ) SI_UNIT ( $, .STERADIAN. ) SOLID_ANGLE_UNIT ( ) );
#163 = DIRECTION ( 'NONE',  ( -1.953775165946846118E-30, 1.000000000000000000, -5.595834479224825276E-16 ) ) ;
#164 = CYLINDRICAL_SURFACE ( 'NONE', #191, 4.104999999999992433 ) ;
#165 = MECHANICAL_CONTEXT ( 'NONE', #7, 'mechanical' ) ;
#166 = AXIS2_PLACEMENT_3D ( 'NONE', #232, #121, #139 ) ;
#167 = CC_DESIGN_PERSON_AND_ORGANIZATION_ASSIGNMENT ( #19, #77, ( #112 ) ) ;
#168 = COORDINATED_UNIVERSAL_TIME_OFFSET ( 1, 0, .AHEAD. ) ;
#169 = CC_DESIGN_APPROVAL ( #61, ( #112 ) ) ;
#170 = PERSON_AND_ORGANIZATION ( #184, #8 ) ;
#171 = CALENDAR_DATE ( 2021, 26, 11 ) ;
#172 = COORDINATED_UNIVERSAL_TIME_OFFSET ( 1, 0, .AHEAD. ) ;
#173 = AXIS2_PLACEMENT_3D ( 'NONE', #34, #145, #93 ) ;
#174 = DIRECTION ( 'NONE',  ( 3.491481338843133355E-15, -1.224646799147353454E-16, 1.000000000000000000 ) ) ;
#175 = DIRECTION ( 'NONE',  ( -3.491481338843133355E-15, 1.224646799147353454E-16, -1.000000000000000000 ) ) ;
#176 = CC_DESIGN_APPROVAL ( #236, ( #63 ) ) ;
#177 = EDGE_LOOP ( 'NONE', ( #82 ) ) ;
#178 = DIRECTION ( 'NONE',  ( 1.953775165946846468E-30, -1.000000000000000000, 5.595834479224825276E-16 ) ) ;
#179 = CARTESIAN_POINT ( 'NONE',  ( 7.077693581937456922E-30, 1.134349519173337187E-30, 2.027132009327186746E-15 ) ) ;
#180 =( GEOMETRIC_REPRESENTATION_CONTEXT ( 3 ) GLOBAL_UNCERTAINTY_ASSIGNED_CONTEXT ( ( #185 ) ) GLOBAL_UNIT_ASSIGNED_CONTEXT ( ( #106, #50, #162 ) ) REPRESENTATION_CONTEXT ( 'NONE', 'WORKASPACE' ) );
#181 = CARTESIAN_POINT ( 'NONE',  ( 4.064084278413407478E-13, -1.425488874207519270E-14, 116.4000000000000057 ) ) ;
#182 = CARTESIAN_POINT ( 'NONE',  ( 4.085033166446466404E-13, -1.432836755002403758E-14, 117.0000000000000000 ) ) ;
#183 = DIRECTION ( 'NONE',  ( -3.491481338843133355E-15, 1.224646799147353454E-16, -1.000000000000000000 ) ) ;
#184 = PERSON ( 'UNSPECIFIED', 'UNSPECIFIED', 'UNSPECIFIED', ('UNSPECIFIED'), ('UNSPECIFIED'), ('UNSPECIFIED') ) ;
#185 = UNCERTAINTY_MEASURE_WITH_UNIT (LENGTH_MEASURE( 1.000000000000000082E-05 ), #106, 'distance_accuracy_value', 'NONE');
#186 = DIRECTION ( 'NONE',  ( -1.953775165946846118E-30, 1.000000000000000000, -5.595834479224825276E-16 ) ) ;
#187 = DIRECTION ( 'NONE',  ( 0.0000000000000000000, 0.0000000000000000000, 1.000000000000000000 ) ) ;
#188 = AXIS2_PLACEMENT_3D ( 'NONE', #181, #183, #237 ) ;
#189 = COORDINATED_UNIVERSAL_TIME_OFFSET ( 1, 0, .AHEAD. ) ;
#190 = APPROVAL_DATE_TIME ( #207, #236 ) ;
#191 = AXIS2_PLACEMENT_3D ( 'NONE', #126, #91, #163 ) ;
#192 = CALENDAR_DATE ( 2021, 26, 11 ) ;
#193 = ADVANCED_FACE ( 'NONE', ( #72 ), #31, .T. ) ;
#194 = APPROVAL_STATUS ( 'not_yet_approved' ) ;
#195 = EDGE_LOOP ( 'NONE', ( #161 ) ) ;
#196 = EDGE_LOOP ( 'NONE', ( #157 ) ) ;
#197 = EDGE_LOOP ( 'NONE', ( #60 ) ) ;
#198 = CARTESIAN_POINT ( 'NONE',  ( 6.218325853231011142E-14, 9.966177342965480638E-15, 17.80999309390950103 ) ) ;
#199 = CIRCLE ( 'NONE', #166, 4.105000000000000426 ) ;
#200 = EDGE_LOOP ( 'NONE', ( #225 ) ) ;
#201 = LOCAL_TIME ( 7, 34, 16.00000000000000000, #189 ) ;
#202 = DIRECTION ( 'NONE',  ( -3.491481338843133355E-15, 1.224646799147353454E-16, -1.000000000000000000 ) ) ;
#203 = VERTEX_POINT ( 'NONE', #143 ) ;
#204 = EDGE_CURVE ( 'NONE', #203, #203, #69, .T. ) ;
#205 = CIRCLE ( 'NONE', #25, 2.999999999999988454 ) ;
#206 = CALENDAR_DATE ( 2021, 26, 11 ) ;
#207 = DATE_AND_TIME ( #171, #229 ) ;
#208 = CC_DESIGN_PERSON_AND_ORGANIZATION_ASSIGNMENT ( #241, #75, ( #63 ) ) ;
#209 = CARTESIAN_POINT ( 'NONE',  ( 6.886566102748345277E-14, -2.415482231287484450E-15, 19.72390923627315829 ) ) ;
#210 = APPROVAL_PERSON_ORGANIZATION ( #115, #35, #81 ) ;
#211 = FACE_BOUND ( 'NONE', #88, .T. ) ;
#212 = FACE_OUTER_BOUND ( 'NONE', #6, .T. ) ;
#213 = ADVANCED_FACE ( 'NONE', ( #15, #70 ), #164, .T. ) ;
#214 = DIRECTION ( 'NONE',  ( 0.0000000000000000000, 1.000000000000000000, 0.0000000000000000000 ) ) ;
#215 = EDGE_LOOP ( 'NONE', ( #9 ) ) ;
#216 = CONICAL_SURFACE ( 'NONE', #98, 4.105000000000000426, 0.5235987755982934866 ) ;
#217 = LOCAL_TIME ( 7, 34, 16.00000000000000000, #172 ) ;
#218 = VERTEX_POINT ( 'NONE', #13 ) ;
#219 = DIRECTION ( 'NONE',  ( -3.002667879190827195E-30, 1.000000000000000000, -8.451758713650729284E-16 ) ) ;
#220 = CARTESIAN_POINT ( 'NONE',  ( 0.0000000000000000000, 0.0000000000000000000, 0.0000000000000000000 ) ) ;
#221 = APPROVAL_STATUS ( 'not_yet_approved' ) ;
#222 = DATE_AND_TIME ( #192, #201 ) ;
#223 = CC_DESIGN_PERSON_AND_ORGANIZATION_ASSIGNMENT ( #170, #148, ( #71 ) ) ;
#224 = PERSON_AND_ORGANIZATION_ROLE ( 'design_owner' ) ;
#225 = ORIENTED_EDGE ( 'NONE', *, *, #132, .T. ) ;
#226 = CIRCLE ( 'NONE', #110, 3.816324865405184230 ) ;
#227 = EDGE_CURVE ( 'NONE', #140, #140, #32, .T. ) ;
#228 = DIRECTION ( 'NONE',  ( -4.275831445896959482E-31, -1.000000000000000000, -1.224646799147353454E-16 ) ) ;
#229 = LOCAL_TIME ( 7, 34, 16.00000000000000000, #168 ) ;
#230 = FACE_OUTER_BOUND ( 'NONE', #200, .T. ) ;
#231 = FACE_OUTER_BOUND ( 'NONE', #196, .T. ) ;
#232 = CARTESIAN_POINT ( 'NONE',  ( 6.218325853231012404E-14, -2.181095103529274526E-15, 17.80999309390950458 ) ) ;
#233 = AXIS2_PLACEMENT_3D ( 'NONE', #198, #64, #178 ) ;
#234 = FACE_OUTER_BOUND ( 'NONE', #136, .T. ) ;
#235 = DIRECTION ( 'NONE',  ( 4.275831445896959482E-31, 1.000000000000000000, 1.224646799147353454E-16 ) ) ;
#236 = APPROVAL ( #194, 'UNSPECIFIED' ) ;
#237 = DIRECTION ( 'NONE',  ( 0.0000000000000000000, 1.000000000000000000, 0.0000000000000000000 ) ) ;
#238 = CARTESIAN_POINT ( 'NONE',  ( 6.218325853231013666E-14, 9.966177342965485371E-15, 17.80999309390950813 ) ) ;
#239 = CLOSED_SHELL ( 'NONE', ( #52, #155, #54, #46, #193 ) ) ;
#240 = SHAPE_DEFINITION_REPRESENTATION ( #79, #160 ) ;
#241 = PERSON_AND_ORGANIZATION ( #184, #8 ) ;
#242 = APPLICATION_PROTOCOL_DEFINITION ( 'international standard', 'config_control_design', 1994, #21 ) ;
#243 = APPROVAL_DATE_TIME ( #222, #35 ) ;
ENDSEC;
END-ISO-10303-21;
