ISO-10303-21;
HEADER;
FILE_DESCRIPTION (( 'STEP AP203' ),
    '1' );
FILE_NAME ('341860.step',
    '2021-11-26T06:34:15',
    ( '' ),
    ( '' ),
    'SwSTEP 2.0',
    'SolidWorks 2019',
    '' );
FILE_SCHEMA (( 'CONFIG_CONTROL_DESIGN' ));
ENDSEC;

DATA;
#1 = FACE_OUTER_BOUND ( 'NONE', #216, .T. ) ;
#2 = LOCAL_TIME ( 7, 34, 15.00000000000000000, #80 ) ;
#3 = APPLICATION_PROTOCOL_DEFINITION ( 'international standard', 'config_control_design', 1994, #157 ) ;
#4 = PERSON_AND_ORGANIZATION ( #24, #208 ) ;
#5 = APPROVAL_ROLE ( '' ) ;
#6 = AXIS2_PLACEMENT_3D ( 'NONE', #203, #222, #98 ) ;
#7 = PERSON_AND_ORGANIZATION_ROLE ( 'creator' ) ;
#8 = EDGE_LOOP ( 'NONE', ( #126 ) ) ;
#9 = CC_DESIGN_DATE_AND_TIME_ASSIGNMENT ( #155, #46, ( #235 ) ) ;
#10 = CC_DESIGN_SECURITY_CLASSIFICATION ( #123, ( #227 ) ) ;
#11 = FACE_OUTER_BOUND ( 'NONE', #85, .T. ) ;
#12 = CLOSED_SHELL ( 'NONE', ( #36, #68, #131, #170, #27 ) ) ;
#13 = CARTESIAN_POINT ( 'NONE',  ( 6.886566102748345277E-14, -2.415482231287484450E-15, 19.72390923627315829 ) ) ;
#14 = AXIS2_PLACEMENT_3D ( 'NONE', #242, #228, #169 ) ;
#15 = EDGE_CURVE ( 'NONE', #167, #167, #185, .T. ) ;
#16 = CARTESIAN_POINT ( 'NONE',  ( 6.886566102748345277E-14, 2.999999999999985789, 19.72390923627315829 ) ) ;
#17 = DIRECTION ( 'NONE',  ( -3.491481338843133355E-15, -5.556903693536828047E-16, -1.000000000000000000 ) ) ;
#18 = FACE_OUTER_BOUND ( 'NONE', #178, .T. ) ;
#19 = CARTESIAN_POINT ( 'NONE',  ( 6.550263468914516052E-30, 1.042514042939462788E-30, 1.876070021065866385E-15 ) ) ;
#20 = DIRECTION ( 'NONE',  ( -3.491481338843133355E-15, -5.556903693536828047E-16, -1.000000000000000000 ) ) ;
#21 = APPLICATION_PROTOCOL_DEFINITION ( 'international standard', 'config_control_design', 1994, #52 ) ;
#22 = EDGE_CURVE ( 'NONE', #96, #96, #121, .T. ) ;
#23 = CARTESIAN_POINT ( 'NONE',  ( 0.0000000000000000000, 0.0000000000000000000, 0.0000000000000000000 ) ) ;
#24 = PERSON ( 'UNSPECIFIED', 'UNSPECIFIED', 'UNSPECIFIED', ('UNSPECIFIED'), ('UNSPECIFIED'), ('UNSPECIFIED') ) ;
#25 = PERSON_AND_ORGANIZATION ( #24, #208 ) ;
#26 = CC_DESIGN_APPROVAL ( #183, ( #123 ) ) ;
#27 = ADVANCED_FACE ( 'NONE', ( #201 ), #124, .T. ) ;
#28 = AXIS2_PLACEMENT_3D ( 'NONE', #32, #128, #71 ) ;
#29 = APPROVAL_DATE_TIME ( #158, #183 ) ;
#30 = AXIS2_PLACEMENT_3D ( 'NONE', #23, #171, #193 ) ;
#31 = EDGE_LOOP ( 'NONE', ( #180 ) ) ;
#32 = CARTESIAN_POINT ( 'NONE',  ( 4.085033166446466404E-13, -1.432836755002403758E-14, 117.0000000000000000 ) ) ;
#33 = EDGE_LOOP ( 'NONE', ( #51 ) ) ;
#34 = EDGE_LOOP ( 'NONE', ( #159 ) ) ;
#35 = CARTESIAN_POINT ( 'NONE',  ( 6.248562968593787447E-14, 9.944965838190981331E-15, 17.89659563428795153 ) ) ;
#36 = ADVANCED_FACE ( 'NONE', ( #240 ), #125, .T. ) ;
#37 = DIRECTION ( 'NONE',  ( -3.491481338843133355E-15, -5.556903693536828047E-16, -1.000000000000000000 ) ) ;
#38 =( GEOMETRIC_REPRESENTATION_CONTEXT ( 3 ) GLOBAL_UNCERTAINTY_ASSIGNED_CONTEXT ( ( #198 ) ) GLOBAL_UNIT_ASSIGNED_CONTEXT ( ( #220, #114, #44 ) ) REPRESENTATION_CONTEXT ( 'NONE', 'WORKASPACE' ) );
#39 = PLANE ( 'NONE',  #66 ) ;
#40 = ADVANCED_BREP_SHAPE_REPRESENTATION ( '341860', ( #233, #73, #30 ), #38 ) ;
#41 = DIRECTION ( 'NONE',  ( -3.491481338843133355E-15, 1.224646799147353454E-16, -1.000000000000000000 ) ) ;
#42 = CIRCLE ( 'NONE', #163, 3.000000000000011990 ) ;
#43 = CARTESIAN_POINT ( 'NONE',  ( 1.745740669421566283E-15, 4.054999999999997939, 0.4999999999999997780 ) ) ;
#44 =( NAMED_UNIT ( * ) SI_UNIT ( $, .STERADIAN. ) SOLID_ANGLE_UNIT ( ) );
#45 = MECHANICAL_CONTEXT ( 'NONE', #52, 'mechanical' ) ;
#46 = DATE_TIME_ROLE ( 'creation_date' ) ;
#47 = PRODUCT_RELATED_PRODUCT_CATEGORY ( 'detail', '', ( #94 ) ) ;
#48 = PERSON_AND_ORGANIZATION ( #24, #208 ) ;
#49 = CONICAL_SURFACE ( 'NONE', #77, 3.000000000000011990, 0.7853981633974453924 ) ;
#50 = CIRCLE ( 'NONE', #199, 4.054999999999997939 ) ;
#51 = ORIENTED_EDGE ( 'NONE', *, *, #210, .T. ) ;
#52 = APPLICATION_CONTEXT ( 'configuration controlled 3d designs of mechanical parts and assemblies' ) ;
#53 = CARTESIAN_POINT ( 'NONE',  ( 4.085033166446466404E-13, -1.432836755002403442E-14, 117.0000000000000000 ) ) ;
#54 = CC_DESIGN_PERSON_AND_ORGANIZATION_ASSIGNMENT ( #63, #137, ( #94 ) ) ;
#55 = ORIENTED_EDGE ( 'NONE', *, *, #138, .F. ) ;
#56 = CYLINDRICAL_SURFACE ( 'NONE', #6, 3.000000000000000000 ) ;
#57 = DIRECTION ( 'NONE',  ( 0.0000000000000000000, 1.000000000000000000, 0.0000000000000000000 ) ) ;
#58 = CARTESIAN_POINT ( 'NONE',  ( -7.570943305532645426E-31, 3.766324865405185740, -2.168404344971008868E-16 ) ) ;
#59 = AXIS2_PLACEMENT_3D ( 'NONE', #205, #20, #148 ) ;
#60 = DIRECTION ( 'NONE',  ( -1.940182554773231999E-30, 1.000000000000000000, -5.556903693536828047E-16 ) ) ;
#61 = CC_DESIGN_APPROVAL ( #225, ( #227 ) ) ;
#62 = DIRECTION ( 'NONE',  ( 3.491481338843133355E-15, 5.556903693536828047E-16, 1.000000000000000000 ) ) ;
#63 = PERSON_AND_ORGANIZATION ( #24, #208 ) ;
#64 = COORDINATED_UNIVERSAL_TIME_OFFSET ( 1, 0, .AHEAD. ) ;
#65 = PERSON_AND_ORGANIZATION ( #24, #208 ) ;
#66 = AXIS2_PLACEMENT_3D ( 'NONE', #190, #226, #93 ) ;
#67 = ORIENTED_EDGE ( 'NONE', *, *, #81, .T. ) ;
#68 = ADVANCED_FACE ( 'NONE', ( #145, #88 ), #49, .T. ) ;
#69 = EDGE_LOOP ( 'NONE', ( #160 ) ) ;
#70 = EDGE_LOOP ( 'NONE', ( #109 ) ) ;
#71 = DIRECTION ( 'NONE',  ( 0.0000000000000000000, 1.000000000000000000, 0.0000000000000000000 ) ) ;
#72 = EDGE_LOOP ( 'NONE', ( #162 ) ) ;
#73 = MANIFOLD_SOLID_BREP ( 'Corps-Déplacer/Copier1[2]', #89 ) ;
#74 = FACE_OUTER_BOUND ( 'NONE', #8, .T. ) ;
#75 = DIRECTION ( 'NONE',  ( -1.940182554773231649E-30, 1.000000000000000000, -5.556903693536829033E-16 ) ) ;
#76 = ADVANCED_FACE ( 'NONE', ( #11 ), #202, .T. ) ;
#77 = AXIS2_PLACEMENT_3D ( 'NONE', #111, #215, #127 ) ;
#78 = DIRECTION ( 'NONE',  ( 1.940182554773231999E-30, -1.000000000000000000, 5.556903693536828047E-16 ) ) ;
#79 = PERSON_AND_ORGANIZATION_ROLE ( 'classification_officer' ) ;
#80 = COORDINATED_UNIVERSAL_TIME_OFFSET ( 1, 0, .AHEAD. ) ;
#81 = EDGE_CURVE ( 'NONE', #224, #224, #42, .T. ) ;
#82 = CALENDAR_DATE ( 2021, 26, 11 ) ;
#83 = APPROVAL_DATE_TIME ( #213, #225 ) ;
#84 = EDGE_LOOP ( 'NONE', ( #108 ) ) ;
#85 = EDGE_LOOP ( 'NONE', ( #200 ) ) ;
#86 = ORIENTED_EDGE ( 'NONE', *, *, #122, .T. ) ;
#87 = APPROVAL ( #156, 'UNSPECIFIED' ) ;
#88 = FACE_OUTER_BOUND ( 'NONE', #34, .T. ) ;
#89 = CLOSED_SHELL ( 'NONE', ( #76, #204, #174, #221 ) ) ;
#90 = DIRECTION ( 'NONE',  ( 3.491481338843133355E-15, 5.556903693536828047E-16, 1.000000000000000000 ) ) ;
#91 = LOCAL_TIME ( 7, 34, 15.00000000000000000, #105 ) ;
#92 = VERTEX_POINT ( 'NONE', #165 ) ;
#93 = DIRECTION ( 'NONE',  ( -1.940182554773231649E-30, 1.000000000000000000, -5.556903693536828047E-16 ) ) ;
#94 = PRODUCT ( '341860', '341860', '', ( #45 ) ) ;
#95 = FACE_OUTER_BOUND ( 'NONE', #33, .T. ) ;
#96 = VERTEX_POINT ( 'NONE', #150 ) ;
#97 = EDGE_CURVE ( 'NONE', #92, #92, #175, .T. ) ;
#98 = DIRECTION ( 'NONE',  ( 4.275831445896959482E-31, 1.000000000000000000, 1.224646799147353700E-16 ) ) ;
#99 = SECURITY_CLASSIFICATION_LEVEL ( 'unclassified' ) ;
#100 = AXIS2_PLACEMENT_3D ( 'NONE', #243, #37, #75 ) ;
#101 = COORDINATED_UNIVERSAL_TIME_OFFSET ( 1, 0, .AHEAD. ) ;
#102 = DATE_TIME_ROLE ( 'classification_date' ) ;
#103 = APPROVAL_ROLE ( '' ) ;
#104 = AXIS2_PLACEMENT_3D ( 'NONE', #13, #143, #181 ) ;
#105 = COORDINATED_UNIVERSAL_TIME_OFFSET ( 1, 0, .AHEAD. ) ;
#106 = CC_DESIGN_PERSON_AND_ORGANIZATION_ASSIGNMENT ( #65, #140, ( #227 ) ) ;
#107 = DIRECTION ( 'NONE',  ( -3.491481338843133355E-15, 1.224646799147353454E-16, -1.000000000000000000 ) ) ;
#108 = ORIENTED_EDGE ( 'NONE', *, *, #210, .F. ) ;
#109 = ORIENTED_EDGE ( 'NONE', *, *, #122, .F. ) ;
#110 = DIRECTION ( 'NONE',  ( 3.491481338843133355E-15, -1.224646799147353454E-16, 1.000000000000000000 ) ) ;
#111 = CARTESIAN_POINT ( 'NONE',  ( 4.064084278413407478E-13, -1.425488874207519270E-14, 116.4000000000000057 ) ) ;
#112 = DIRECTION ( 'NONE',  ( -3.491481338843133355E-15, -5.556903693536828047E-16, -1.000000000000000000 ) ) ;
#113 = CC_DESIGN_PERSON_AND_ORGANIZATION_ASSIGNMENT ( #120, #79, ( #123 ) ) ;
#114 =( NAMED_UNIT ( * ) PLANE_ANGLE_UNIT ( ) SI_UNIT ( $, .RADIAN. ) );
#115 = CARTESIAN_POINT ( 'NONE',  ( 1.745740669421573975E-15, 2.778451846768425363E-16, 0.5000000000000021094 ) ) ;
#116 = CONICAL_SURFACE ( 'NONE', #14, 4.054999999999999716, 0.5235987755982932645 ) ;
#117 = CYLINDRICAL_SURFACE ( 'NONE', #100, 4.054999999999992610 ) ;
#118 = COORDINATED_UNIVERSAL_TIME_OFFSET ( 1, 0, .AHEAD. ) ;
#119 = PERSON_AND_ORGANIZATION ( #24, #208 ) ;
#120 = PERSON_AND_ORGANIZATION ( #24, #208 ) ;
#121 = CIRCLE ( 'NONE', #28, 2.400000000000011902 ) ;
#122 = EDGE_CURVE ( 'NONE', #241, #241, #238, .T. ) ;
#123 = SECURITY_CLASSIFICATION ( '', '', #99 ) ;
#124 = PLANE ( 'NONE',  #144 ) ;
#125 = PLANE ( 'NONE',  #152 ) ;
#126 = ORIENTED_EDGE ( 'NONE', *, *, #15, .F. ) ;
#127 = DIRECTION ( 'NONE',  ( 0.0000000000000000000, 1.000000000000000000, 0.0000000000000000000 ) ) ;
#128 = DIRECTION ( 'NONE',  ( -3.491481338843133355E-15, 1.224646799147353454E-16, -1.000000000000000000 ) ) ;
#129 = FACE_OUTER_BOUND ( 'NONE', #142, .T. ) ;
#130 = DIRECTION ( 'NONE',  ( 0.0000000000000000000, 1.000000000000000000, 0.0000000000000000000 ) ) ;
#131 = ADVANCED_FACE ( 'NONE', ( #18, #74 ), #56, .T. ) ;
#132 = VERTEX_POINT ( 'NONE', #151 ) ;
#133 = CIRCLE ( 'NONE', #196, 4.054999999999999716 ) ;
#134 = CARTESIAN_POINT ( 'NONE',  ( 6.248562968593786185E-14, -2.191700855916523785E-15, 17.89659563428795153 ) ) ;
#135 = CONICAL_SURFACE ( 'NONE', #154, 3.766324865405185740, 0.5235987755982977054 ) ;
#136 = CALENDAR_DATE ( 2021, 26, 11 ) ;
#137 = PERSON_AND_ORGANIZATION_ROLE ( 'design_owner' ) ;
#138 = EDGE_CURVE ( 'NONE', #132, #132, #133, .T. ) ;
#139 = CC_DESIGN_DATE_AND_TIME_ASSIGNMENT ( #197, #102, ( #123 ) ) ;
#140 = PERSON_AND_ORGANIZATION_ROLE ( 'design_supplier' ) ;
#141 = DIRECTION ( 'NONE',  ( 4.275831445896959482E-31, 1.000000000000000000, 1.224646799147353454E-16 ) ) ;
#142 = EDGE_LOOP ( 'NONE', ( #237 ) ) ;
#143 = DIRECTION ( 'NONE',  ( -3.491481338843133355E-15, 1.224646799147353454E-16, -1.000000000000000000 ) ) ;
#144 = AXIS2_PLACEMENT_3D ( 'NONE', #232, #218, #141 ) ;
#145 = FACE_BOUND ( 'NONE', #234, .T. ) ;
#146 = DESIGN_CONTEXT ( 'detailed design', #157, 'design' ) ;
#147 = DIRECTION ( 'NONE',  ( 1.940182554773231649E-30, -1.000000000000000000, 5.556903693536828047E-16 ) ) ;
#148 = DIRECTION ( 'NONE',  ( -3.039692144039050088E-30, 1.000000000000000000, -8.555972754509556268E-16 ) ) ;
#149 = CARTESIAN_POINT ( 'NONE',  ( 6.550263468914516052E-30, 1.042514042939462788E-30, 1.876070021065866385E-15 ) ) ;
#150 = CARTESIAN_POINT ( 'NONE',  ( 4.085033166446466404E-13, 2.399999999999997691, 117.0000000000000000 ) ) ;
#151 = CARTESIAN_POINT ( 'NONE',  ( 6.248562968593786185E-14, 4.054999999999997051, 17.89659563428795153 ) ) ;
#152 = AXIS2_PLACEMENT_3D ( 'NONE', #53, #110, #182 ) ;
#153 = FACE_OUTER_BOUND ( 'NONE', #84, .T. ) ;
#154 = AXIS2_PLACEMENT_3D ( 'NONE', #149, #62, #78 ) ;
#155 = DATE_AND_TIME ( #172, #214 ) ;
#156 = APPROVAL_STATUS ( 'not_yet_approved' ) ;
#157 = APPLICATION_CONTEXT ( 'configuration controlled 3d designs of mechanical parts and assemblies' ) ;
#158 = DATE_AND_TIME ( #82, #189 ) ;
#159 = ORIENTED_EDGE ( 'NONE', *, *, #81, .F. ) ;
#160 = ORIENTED_EDGE ( 'NONE', *, *, #22, .F. ) ;
#161 = ORIENTED_EDGE ( 'NONE', *, *, #22, .T. ) ;
#162 = ORIENTED_EDGE ( 'NONE', *, *, #138, .T. ) ;
#163 = AXIS2_PLACEMENT_3D ( 'NONE', #219, #107, #130 ) ;
#164 = APPROVAL_PERSON_ORGANIZATION ( #119, #87, #103 ) ;
#165 = CARTESIAN_POINT ( 'NONE',  ( 6.248562968593786185E-14, 4.054999999999997051, 17.89659563428795153 ) ) ;
#166 = CARTESIAN_POINT ( 'NONE',  ( 4.064084278413407478E-13, 2.999999999999997335, 116.4000000000000057 ) ) ;
#167 = VERTEX_POINT ( 'NONE', #16 ) ;
#168 = FACE_BOUND ( 'NONE', #70, .T. ) ;
#169 = DIRECTION ( 'NONE',  ( 0.0000000000000000000, 1.000000000000000000, 0.0000000000000000000 ) ) ;
#170 = ADVANCED_FACE ( 'NONE', ( #188, #1 ), #116, .T. ) ;
#171 = DIRECTION ( 'NONE',  ( 0.0000000000000000000, 0.0000000000000000000, 1.000000000000000000 ) ) ;
#172 = CALENDAR_DATE ( 2021, 26, 11 ) ;
#173 = PERSON_AND_ORGANIZATION ( #24, #208 ) ;
#174 = ADVANCED_FACE ( 'NONE', ( #95, #168 ), #135, .T. ) ;
#175 = CIRCLE ( 'NONE', #59, 4.054999999999987281 ) ;
#176 = APPROVAL_STATUS ( 'not_yet_approved' ) ;
#177 = DATE_AND_TIME ( #211, #91 ) ;
#178 = EDGE_LOOP ( 'NONE', ( #67 ) ) ;
#179 = CC_DESIGN_PERSON_AND_ORGANIZATION_ASSIGNMENT ( #25, #7, ( #227 ) ) ;
#180 = ORIENTED_EDGE ( 'NONE', *, *, #15, .T. ) ;
#181 = DIRECTION ( 'NONE',  ( 0.0000000000000000000, 1.000000000000000000, 0.0000000000000000000 ) ) ;
#182 = DIRECTION ( 'NONE',  ( -4.275831445896959482E-31, -1.000000000000000000, -1.224646799147353454E-16 ) ) ;
#183 = APPROVAL ( #192, 'UNSPECIFIED' ) ;
#184 = EDGE_LOOP ( 'NONE', ( #86 ) ) ;
#185 = CIRCLE ( 'NONE', #104, 2.999999999999988454 ) ;
#186 = APPROVAL_PERSON_ORGANIZATION ( #4, #225, #230 ) ;
#187 = DIRECTION ( 'NONE',  ( -1.899807590024401356E-30, 1.000000000000000000, -5.614857120146881972E-16 ) ) ;
#188 = FACE_BOUND ( 'NONE', #31, .T. ) ;
#189 = LOCAL_TIME ( 7, 34, 15.00000000000000000, #118 ) ;
#190 = CARTESIAN_POINT ( 'NONE',  ( -4.032226065010523182E-30, 3.766324865405185740, -1.154875445030034079E-15 ) ) ;
#191 = AXIS2_PLACEMENT_3D ( 'NONE', #19, #17, #60 ) ;
#192 = APPROVAL_STATUS ( 'not_yet_approved' ) ;
#193 = DIRECTION ( 'NONE',  ( 1.000000000000000000, 0.0000000000000000000, 0.0000000000000000000 ) ) ;
#194 = CALENDAR_DATE ( 2021, 26, 11 ) ;
#195 = SHAPE_DEFINITION_REPRESENTATION ( #223, #40 ) ;
#196 = AXIS2_PLACEMENT_3D ( 'NONE', #134, #41, #57 ) ;
#197 = DATE_AND_TIME ( #136, #217 ) ;
#198 = UNCERTAINTY_MEASURE_WITH_UNIT (LENGTH_MEASURE( 1.000000000000000082E-05 ), #220, 'distance_accuracy_value', 'NONE');
#199 = AXIS2_PLACEMENT_3D ( 'NONE', #115, #112, #187 ) ;
#200 = ORIENTED_EDGE ( 'NONE', *, *, #97, .F. ) ;
#201 = FACE_OUTER_BOUND ( 'NONE', #72, .T. ) ;
#202 = PLANE ( 'NONE',  #207 ) ;
#203 = CARTESIAN_POINT ( 'NONE',  ( 0.0000000000000000000, 0.0000000000000000000, 0.0000000000000000000 ) ) ;
#204 = ADVANCED_FACE ( 'NONE', ( #129, #153 ), #117, .T. ) ;
#205 = CARTESIAN_POINT ( 'NONE',  ( 6.248562968593787447E-14, 9.944965838190981331E-15, 17.89659563428795153 ) ) ;
#206 = VERTEX_POINT ( 'NONE', #43 ) ;
#207 = AXIS2_PLACEMENT_3D ( 'NONE', #35, #90, #147 ) ;
#208 = ORGANIZATION ( 'UNSPECIFIED', 'UNSPECIFIED', '' ) ;
#209 = FACE_OUTER_BOUND ( 'NONE', #184, .T. ) ;
#210 = EDGE_CURVE ( 'NONE', #206, #206, #50, .T. ) ;
#211 = CALENDAR_DATE ( 2021, 26, 11 ) ;
#212 = APPROVAL_DATE_TIME ( #177, #87 ) ;
#213 = DATE_AND_TIME ( #194, #2 ) ;
#214 = LOCAL_TIME ( 7, 34, 15.00000000000000000, #101 ) ;
#215 = DIRECTION ( 'NONE',  ( -3.491481338843133355E-15, 1.224646799147353454E-16, -1.000000000000000000 ) ) ;
#216 = EDGE_LOOP ( 'NONE', ( #55 ) ) ;
#217 = LOCAL_TIME ( 7, 34, 15.00000000000000000, #64 ) ;
#218 = DIRECTION ( 'NONE',  ( -3.491481338843133355E-15, 1.224646799147353454E-16, -1.000000000000000000 ) ) ;
#219 = CARTESIAN_POINT ( 'NONE',  ( 4.064084278413407478E-13, -1.425488874207519270E-14, 116.4000000000000057 ) ) ;
#220 =( LENGTH_UNIT ( ) NAMED_UNIT ( * ) SI_UNIT ( .MILLI., .METRE. ) );
#221 = ADVANCED_FACE ( 'NONE', ( #209 ), #39, .T. ) ;
#222 = DIRECTION ( 'NONE',  ( -3.491481338843133355E-15, 1.224646799147353454E-16, -1.000000000000000000 ) ) ;
#223 = PRODUCT_DEFINITION_SHAPE ( 'NONE', 'NONE',  #235 ) ;
#224 = VERTEX_POINT ( 'NONE', #166 ) ;
#225 = APPROVAL ( #176, 'UNSPECIFIED' ) ;
#226 = DIRECTION ( 'NONE',  ( -3.491481338843133355E-15, -5.556903693536828047E-16, -1.000000000000000000 ) ) ;
#227 = PRODUCT_DEFINITION_FORMATION_WITH_SPECIFIED_SOURCE ( 'ANY', '', #94, .NOT_KNOWN. ) ;
#228 = DIRECTION ( 'NONE',  ( -3.491481338843133355E-15, 1.224646799147353454E-16, -1.000000000000000000 ) ) ;
#229 = PERSON_AND_ORGANIZATION_ROLE ( 'creator' ) ;
#230 = APPROVAL_ROLE ( '' ) ;
#231 = CC_DESIGN_PERSON_AND_ORGANIZATION_ASSIGNMENT ( #48, #229, ( #235 ) ) ;
#232 = CARTESIAN_POINT ( 'NONE',  ( 6.248562968593787447E-14, 4.054999999999997051, 17.89659563428795153 ) ) ;
#233 = MANIFOLD_SOLID_BREP ( 'Corps-Déplacer/Copier1[1]', #12 ) ;
#234 = EDGE_LOOP ( 'NONE', ( #161 ) ) ;
#235 = PRODUCT_DEFINITION ( 'UNKNOWN', '', #227, #146 ) ;
#236 = APPROVAL_PERSON_ORGANIZATION ( #173, #183, #5 ) ;
#237 = ORIENTED_EDGE ( 'NONE', *, *, #97, .T. ) ;
#238 = CIRCLE ( 'NONE', #191, 3.766324865405185740 ) ;
#239 = CC_DESIGN_APPROVAL ( #87, ( #235 ) ) ;
#240 = FACE_OUTER_BOUND ( 'NONE', #69, .T. ) ;
#241 = VERTEX_POINT ( 'NONE', #58 ) ;
#242 = CARTESIAN_POINT ( 'NONE',  ( 6.248562968593786185E-14, -2.191700855916523785E-15, 17.89659563428795153 ) ) ;
#243 = CARTESIAN_POINT ( 'NONE',  ( 0.0000000000000000000, 0.0000000000000000000, 0.0000000000000000000 ) ) ;
ENDSEC;
END-ISO-10303-21;
