ISO-10303-21;
HEADER;
FILE_DESCRIPTION (( 'STEP AP203' ),
    '1' );
FILE_NAME ('341855.step',
    '2021-11-26T06:53:02',
    ( '' ),
    ( '' ),
    'SwSTEP 2.0',
    'SolidWorks 2019',
    '' );
FILE_SCHEMA (( 'CONFIG_CONTROL_DESIGN' ));
ENDSEC;

DATA;
#1 = ORIENTED_EDGE ( 'NONE', *, *, #170, .F. ) ;
#2 = VERTEX_POINT ( 'NONE', #213 ) ;
#3 = SECURITY_CLASSIFICATION_LEVEL ( 'unclassified' ) ;
#4 = AXIS2_PLACEMENT_3D ( 'NONE', #144, #145, #78 ) ;
#5 = DATE_AND_TIME ( #175, #212 ) ;
#6 = PERSON_AND_ORGANIZATION ( #173, #9 ) ;
#7 = DIRECTION ( 'NONE',  ( -3.491481338843133355E-15, 1.030643345817079849E-16, -1.000000000000000000 ) ) ;
#8 = APPROVAL ( #42, 'UNSPECIFIED' ) ;
#9 = ORGANIZATION ( 'UNSPECIFIED', 'UNSPECIFIED', '' ) ;
#10 = DIRECTION ( 'NONE',  ( 0.0000000000000000000, 1.000000000000000000, 0.0000000000000000000 ) ) ;
#11 = LOCAL_TIME ( 7, 53, 2.000000000000000000, #19 ) ;
#12 = ORIENTED_EDGE ( 'NONE', *, *, #216, .F. ) ;
#13 = ORIENTED_EDGE ( 'NONE', *, *, #79, .T. ) ;
#14 = EDGE_LOOP ( 'NONE', ( #148 ) ) ;
#15 = DIRECTION ( 'NONE',  ( -1.809339367238287323E-30, 1.000000000000000000, -5.182153910173248934E-16 ) ) ;
#16 = CARTESIAN_POINT ( 'NONE',  ( 5.658939219019674103E-14, 4.029999999999998472, 16.20784609690826983 ) ) ;
#17 = AXIS2_PLACEMENT_3D ( 'NONE', #225, #7, #103 ) ;
#18 = DESIGN_CONTEXT ( 'detailed design', #174, 'design' ) ;
#19 = COORDINATED_UNIVERSAL_TIME_OFFSET ( 1, 0, .AHEAD. ) ;
#20 = DATE_TIME_ROLE ( 'creation_date' ) ;
#21 = CALENDAR_DATE ( 2021, 26, 11 ) ;
#22 = AXIS2_PLACEMENT_3D ( 'NONE', #131, #201, #34 ) ;
#23 = CALENDAR_DATE ( 2021, 26, 11 ) ;
#24 = CARTESIAN_POINT ( 'NONE',  ( 5.658939219019674103E-14, 8.399155302657943610E-15, 16.20784609690826983 ) ) ;
#25 = APPROVAL_STATUS ( 'not_yet_approved' ) ;
#26 = LOCAL_TIME ( 7, 53, 2.000000000000000000, #139 ) ;
#27 = PLANE ( 'NONE',  #50 ) ;
#28 = ADVANCED_BREP_SHAPE_REPRESENTATION ( '341855', ( #195, #196, #172 ), #218 ) ;
#29 = LOCAL_TIME ( 7, 53, 2.000000000000000000, #99 ) ;
#30 = ADVANCED_FACE ( 'NONE', ( #227, #140 ), #235, .T. ) ;
#31 =( NAMED_UNIT ( * ) PLANE_ANGLE_UNIT ( ) SI_UNIT ( $, .RADIAN. ) );
#32 = CIRCLE ( 'NONE', #90, 4.029999999999990479 ) ;
#33 = CARTESIAN_POINT ( 'NONE',  ( 5.658939219019674103E-14, 4.029999999999998472, 16.20784609690826983 ) ) ;
#34 = DIRECTION ( 'NONE',  ( 3.598472008923184252E-31, 1.000000000000000000, 1.030643345817079726E-16 ) ) ;
#35 = DIRECTION ( 'NONE',  ( -1.809339367238287323E-30, 1.000000000000000000, -5.182153910173248934E-16 ) ) ;
#36 = PLANE ( 'NONE',  #134 ) ;
#37 = APPLICATION_PROTOCOL_DEFINITION ( 'international standard', 'config_control_design', 1994, #233 ) ;
#38 = AXIS2_PLACEMENT_3D ( 'NONE', #70, #160, #112 ) ;
#39 = COORDINATED_UNIVERSAL_TIME_OFFSET ( 1, 0, .AHEAD. ) ;
#40 = PRODUCT_RELATED_PRODUCT_CATEGORY ( 'detail', '', ( #118 ) ) ;
#41 = COORDINATED_UNIVERSAL_TIME_OFFSET ( 1, 0, .AHEAD. ) ;
#42 = APPROVAL_STATUS ( 'not_yet_approved' ) ;
#43 = ADVANCED_FACE ( 'NONE', ( #200, #147 ), #74, .T. ) ;
#44 = DATE_TIME_ROLE ( 'classification_date' ) ;
#45 = EDGE_LOOP ( 'NONE', ( #202 ) ) ;
#46 = DATE_AND_TIME ( #81, #26 ) ;
#47 = CARTESIAN_POINT ( 'NONE',  ( 3.505447264198505636E-13, -1.034765919200348261E-14, 100.4000000000000057 ) ) ;
#48 = CC_DESIGN_PERSON_AND_ORGANIZATION_ASSIGNMENT ( #119, #137, ( #92 ) ) ;
#49 = EDGE_CURVE ( 'NONE', #2, #2, #186, .T. ) ;
#50 = AXIS2_PLACEMENT_3D ( 'NONE', #24, #230, #61 ) ;
#51 = ORIENTED_EDGE ( 'NONE', *, *, #158, .T. ) ;
#52 = DIRECTION ( 'NONE',  ( -3.058548795056659833E-30, 1.000000000000000000, -8.609049508569782977E-16 ) ) ;
#53 = CARTESIAN_POINT ( 'NONE',  ( 3.526396152231565067E-13, 2.399999999999985700, 101.0000000000000000 ) ) ;
#54 = CLOSED_SHELL ( 'NONE', ( #58, #197, #236, #189 ) ) ;
#55 = CARTESIAN_POINT ( 'NONE',  ( 3.505447264198505636E-13, 2.999999999999985789, 100.4000000000000057 ) ) ;
#56 = ORIENTED_EDGE ( 'NONE', *, *, #129, .F. ) ;
#57 = CARTESIAN_POINT ( 'NONE',  ( 0.0000000000000000000, 0.0000000000000000000, 0.0000000000000000000 ) ) ;
#58 = ADVANCED_FACE ( 'NONE', ( #153 ), #27, .T. ) ;
#59 = CC_DESIGN_APPROVAL ( #104, ( #198 ) ) ;
#60 = FACE_OUTER_BOUND ( 'NONE', #229, .T. ) ;
#61 = DIRECTION ( 'NONE',  ( 1.809339367238287323E-30, -1.000000000000000000, 5.182153910173248934E-16 ) ) ;
#62 = PERSON_AND_ORGANIZATION_ROLE ( 'design_owner' ) ;
#63 = APPROVAL_ROLE ( '' ) ;
#64 = PRODUCT_DEFINITION_SHAPE ( 'NONE', 'NONE',  #92 ) ;
#65 = PERSON_AND_ORGANIZATION_ROLE ( 'design_supplier' ) ;
#66 = APPROVAL_DATE_TIME ( #5, #228 ) ;
#67 = EDGE_LOOP ( 'NONE', ( #84 ) ) ;
#68 = AXIS2_PLACEMENT_3D ( 'NONE', #219, #209, #10 ) ;
#69 = MECHANICAL_CONTEXT ( 'NONE', #233, 'mechanical' ) ;
#70 = CARTESIAN_POINT ( 'NONE',  ( 3.505447264198505636E-13, -1.034765919200348261E-14, 100.4000000000000057 ) ) ;
#71 = CIRCLE ( 'NONE', #82, 3.799059892324148979 ) ;
#72 = FACE_OUTER_BOUND ( 'NONE', #14, .T. ) ;
#73 = CARTESIAN_POINT ( 'NONE',  ( 5.658939219019674103E-14, -1.670450872980583922E-15, 16.20784609690826983 ) ) ;
#74 = CYLINDRICAL_SURFACE ( 'NONE', #22, 2.999999999999993339 ) ;
#75 = EDGE_LOOP ( 'NONE', ( #1 ) ) ;
#76 = CC_DESIGN_APPROVAL ( #8, ( #92 ) ) ;
#77 = VERTEX_POINT ( 'NONE', #33 ) ;
#78 = DIRECTION ( 'NONE',  ( -1.809339367238287323E-30, 1.000000000000000000, -5.182153910173248934E-16 ) ) ;
#79 = EDGE_CURVE ( 'NONE', #95, #95, #101, .T. ) ;
#80 = CARTESIAN_POINT ( 'NONE',  ( 5.658939219019674103E-14, -1.670450872980583922E-15, 16.20784609690826983 ) ) ;
#81 = CALENDAR_DATE ( 2021, 26, 11 ) ;
#82 = AXIS2_PLACEMENT_3D ( 'NONE', #91, #168, #15 ) ;
#83 = CALENDAR_DATE ( 2021, 26, 11 ) ;
#84 = ORIENTED_EDGE ( 'NONE', *, *, #129, .T. ) ;
#85 = CONICAL_SURFACE ( 'NONE', #207, 3.799059892324148979, 0.5235987755982975944 ) ;
#86 = ORIENTED_EDGE ( 'NONE', *, *, #170, .T. ) ;
#87 = CARTESIAN_POINT ( 'NONE',  ( 3.526396152231565067E-13, -1.040949779275250653E-14, 101.0000000000000000 ) ) ;
#88 = CC_DESIGN_PERSON_AND_ORGANIZATION_ASSIGNMENT ( #191, #171, ( #141 ) ) ;
#89 = CARTESIAN_POINT ( 'NONE',  ( 0.0000000000000000000, 0.0000000000000000000, 0.0000000000000000000 ) ) ;
#90 = AXIS2_PLACEMENT_3D ( 'NONE', #164, #125, #52 ) ;
#91 = CARTESIAN_POINT ( 'NONE',  ( 6.305967873763183966E-30, 9.359493264620012605E-31, 1.806100981726169383E-15 ) ) ;
#92 = PRODUCT_DEFINITION ( 'UNKNOWN', '', #141, #18 ) ;
#93 = VERTEX_POINT ( 'NONE', #16 ) ;
#94 = EDGE_LOOP ( 'NONE', ( #12 ) ) ;
#95 = VERTEX_POINT ( 'NONE', #53 ) ;
#96 = LOCAL_TIME ( 7, 53, 2.000000000000000000, #41 ) ;
#97 = VERTEX_POINT ( 'NONE', #220 ) ;
#98 = ADVANCED_FACE ( 'NONE', ( #60 ), #121, .T. ) ;
#99 = COORDINATED_UNIVERSAL_TIME_OFFSET ( 1, 0, .AHEAD. ) ;
#100 = APPROVAL_DATE_TIME ( #117, #8 ) ;
#101 = CIRCLE ( 'NONE', #179, 2.399999999999996358 ) ;
#102 = APPROVAL_ROLE ( '' ) ;
#103 = DIRECTION ( 'NONE',  ( 3.598472008923184252E-31, 1.000000000000000000, 1.030643345817079849E-16 ) ) ;
#104 = APPROVAL ( #25, 'UNSPECIFIED' ) ;
#105 = AXIS2_PLACEMENT_3D ( 'NONE', #73, #217, #185 ) ;
#106 = ADVANCED_FACE ( 'NONE', ( #107 ), #36, .T. ) ;
#107 = FACE_OUTER_BOUND ( 'NONE', #162, .T. ) ;
#108 =( LENGTH_UNIT ( ) NAMED_UNIT ( * ) SI_UNIT ( .MILLI., .METRE. ) );
#109 = AXIS2_PLACEMENT_3D ( 'NONE', #184, #113, #178 ) ;
#110 = EDGE_LOOP ( 'NONE', ( #51 ) ) ;
#111 = DIRECTION ( 'NONE',  ( 1.809339367238287673E-30, -1.000000000000000000, 5.182153910173248934E-16 ) ) ;
#112 = DIRECTION ( 'NONE',  ( 0.0000000000000000000, 1.000000000000000000, 0.0000000000000000000 ) ) ;
#113 = DIRECTION ( 'NONE',  ( -3.491481338843133355E-15, -5.182153910173248934E-16, -1.000000000000000000 ) ) ;
#114 = FACE_OUTER_BOUND ( 'NONE', #120, .T. ) ;
#115 = CARTESIAN_POINT ( 'NONE',  ( 6.305967873763183966E-30, 9.359493264620012605E-31, 1.806100981726169383E-15 ) ) ;
#116 = CARTESIAN_POINT ( 'NONE',  ( 6.281823795492844412E-14, 2.999999999999988010, 17.99185842870425489 ) ) ;
#117 = DATE_AND_TIME ( #21, #11 ) ;
#118 = PRODUCT ( '341855', '341855', '', ( #69 ) ) ;
#119 = PERSON_AND_ORGANIZATION ( #173, #9 ) ;
#120 = EDGE_LOOP ( 'NONE', ( #180 ) ) ;
#121 = PLANE ( 'NONE',  #17 ) ;
#122 = DIRECTION ( 'NONE',  ( -3.491481338843133355E-15, 1.030643345817079849E-16, -1.000000000000000000 ) ) ;
#123 = DIRECTION ( 'NONE',  ( -3.491481338843133355E-15, 1.030643345817079849E-16, -1.000000000000000000 ) ) ;
#124 = DIRECTION ( 'NONE',  ( -3.491481338843133355E-15, 1.030643345817079849E-16, -1.000000000000000000 ) ) ;
#125 = DIRECTION ( 'NONE',  ( -3.491481338843133355E-15, -5.182153910173248934E-16, -1.000000000000000000 ) ) ;
#126 = FACE_OUTER_BOUND ( 'NONE', #143, .T. ) ;
#127 = APPROVAL_PERSON_ORGANIZATION ( #154, #8, #204 ) ;
#128 = FACE_BOUND ( 'NONE', #67, .T. ) ;
#129 = EDGE_CURVE ( 'NONE', #199, #199, #176, .T. ) ;
#130 = EDGE_LOOP ( 'NONE', ( #13 ) ) ;
#131 = CARTESIAN_POINT ( 'NONE',  ( 0.0000000000000000000, 0.0000000000000000000, 0.0000000000000000000 ) ) ;
#132 = ORIENTED_EDGE ( 'NONE', *, *, #79, .F. ) ;
#133 =( NAMED_UNIT ( * ) SI_UNIT ( $, .STERADIAN. ) SOLID_ANGLE_UNIT ( ) );
#134 = AXIS2_PLACEMENT_3D ( 'NONE', #87, #157, #231 ) ;
#135 = APPROVAL_STATUS ( 'not_yet_approved' ) ;
#136 = CC_DESIGN_PERSON_AND_ORGANIZATION_ASSIGNMENT ( #223, #208, ( #198 ) ) ;
#137 = PERSON_AND_ORGANIZATION_ROLE ( 'creator' ) ;
#138 = AXIS2_PLACEMENT_3D ( 'NONE', #57, #237, #35 ) ;
#139 = COORDINATED_UNIVERSAL_TIME_OFFSET ( 1, 0, .AHEAD. ) ;
#140 = FACE_OUTER_BOUND ( 'NONE', #192, .T. ) ;
#141 = PRODUCT_DEFINITION_FORMATION_WITH_SPECIFIED_SOURCE ( 'ANY', '', #118, .NOT_KNOWN. ) ;
#142 = CC_DESIGN_DATE_AND_TIME_ASSIGNMENT ( #210, #44, ( #198 ) ) ;
#143 = EDGE_LOOP ( 'NONE', ( #234 ) ) ;
#144 = CARTESIAN_POINT ( 'NONE',  ( -3.720804684796540675E-30, 3.799059892324148979, -1.065680816735910357E-15 ) ) ;
#145 = DIRECTION ( 'NONE',  ( -3.491481338843133355E-15, -5.182153910173248934E-16, -1.000000000000000000 ) ) ;
#146 = CLOSED_SHELL ( 'NONE', ( #106, #30, #43, #242, #98 ) ) ;
#147 = FACE_OUTER_BOUND ( 'NONE', #183, .T. ) ;
#148 = ORIENTED_EDGE ( 'NONE', *, *, #49, .T. ) ;
#149 = VERTEX_POINT ( 'NONE', #55 ) ;
#150 = CONICAL_SURFACE ( 'NONE', #105, 4.030000000000000249, 0.5235987755982934866 ) ;
#151 = SHAPE_DEFINITION_REPRESENTATION ( #64, #28 ) ;
#152 = DIRECTION ( 'NONE',  ( 0.0000000000000000000, 1.000000000000000000, 0.0000000000000000000 ) ) ;
#153 = FACE_OUTER_BOUND ( 'NONE', #221, .T. ) ;
#154 = PERSON_AND_ORGANIZATION ( #173, #9 ) ;
#155 = PLANE ( 'NONE',  #4 ) ;
#156 = AXIS2_PLACEMENT_3D ( 'NONE', #80, #123, #152 ) ;
#157 = DIRECTION ( 'NONE',  ( 3.491481338843133355E-15, -1.030643345817079849E-16, 1.000000000000000000 ) ) ;
#158 = EDGE_CURVE ( 'NONE', #149, #149, #243, .T. ) ;
#159 = DIRECTION ( 'NONE',  ( 0.0000000000000000000, 0.0000000000000000000, 1.000000000000000000 ) ) ;
#160 = DIRECTION ( 'NONE',  ( -3.491481338843133355E-15, 1.030643345817079849E-16, -1.000000000000000000 ) ) ;
#161 = CC_DESIGN_DATE_AND_TIME_ASSIGNMENT ( #188, #20, ( #92 ) ) ;
#162 = EDGE_LOOP ( 'NONE', ( #132 ) ) ;
#163 = FACE_OUTER_BOUND ( 'NONE', #45, .T. ) ;
#164 = CARTESIAN_POINT ( 'NONE',  ( 5.658939219019675366E-14, 8.399155302657943610E-15, 16.20784609690827338 ) ) ;
#165 = ORIENTED_EDGE ( 'NONE', *, *, #158, .F. ) ;
#166 = FACE_BOUND ( 'NONE', #94, .T. ) ;
#167 = CC_DESIGN_APPROVAL ( #228, ( #141 ) ) ;
#168 = DIRECTION ( 'NONE',  ( -3.491481338843133355E-15, -5.182153910173248934E-16, -1.000000000000000000 ) ) ;
#169 = PERSON_AND_ORGANIZATION ( #173, #9 ) ;
#170 = EDGE_CURVE ( 'NONE', #93, #93, #190, .T. ) ;
#171 = PERSON_AND_ORGANIZATION_ROLE ( 'creator' ) ;
#172 = AXIS2_PLACEMENT_3D ( 'NONE', #89, #159, #232 ) ;
#173 = PERSON ( 'UNSPECIFIED', 'UNSPECIFIED', 'UNSPECIFIED', ('UNSPECIFIED'), ('UNSPECIFIED'), ('UNSPECIFIED') ) ;
#174 = APPLICATION_CONTEXT ( 'configuration controlled 3d designs of mechanical parts and assemblies' ) ;
#175 = CALENDAR_DATE ( 2021, 26, 11 ) ;
#176 = CIRCLE ( 'NONE', #68, 2.999999999999989786 ) ;
#177 = CC_DESIGN_PERSON_AND_ORGANIZATION_ASSIGNMENT ( #182, #62, ( #118 ) ) ;
#178 = DIRECTION ( 'NONE',  ( -1.816013347064888043E-30, 1.000000000000000000, -5.246139544284701133E-16 ) ) ;
#179 = AXIS2_PLACEMENT_3D ( 'NONE', #193, #124, #181 ) ;
#180 = ORIENTED_EDGE ( 'NONE', *, *, #49, .F. ) ;
#181 = DIRECTION ( 'NONE',  ( 0.0000000000000000000, 1.000000000000000000, 0.0000000000000000000 ) ) ;
#182 = PERSON_AND_ORGANIZATION ( #173, #9 ) ;
#183 = EDGE_LOOP ( 'NONE', ( #56 ) ) ;
#184 = CARTESIAN_POINT ( 'NONE',  ( 1.396592535537260836E-15, 2.072861564069310716E-16, 0.4000000000000021316 ) ) ;
#185 = DIRECTION ( 'NONE',  ( 0.0000000000000000000, 1.000000000000000000, 0.0000000000000000000 ) ) ;
#186 = CIRCLE ( 'NONE', #109, 4.029999999999998472 ) ;
#187 = CC_DESIGN_PERSON_AND_ORGANIZATION_ASSIGNMENT ( #6, #65, ( #141 ) ) ;
#188 = DATE_AND_TIME ( #23, #29 ) ;
#189 = ADVANCED_FACE ( 'NONE', ( #126 ), #155, .T. ) ;
#190 = CIRCLE ( 'NONE', #156, 4.030000000000000249 ) ;
#191 = PERSON_AND_ORGANIZATION ( #173, #9 ) ;
#192 = EDGE_LOOP ( 'NONE', ( #165 ) ) ;
#193 = CARTESIAN_POINT ( 'NONE',  ( 3.526396152231565067E-13, -1.040949779275250653E-14, 101.0000000000000000 ) ) ;
#194 = CC_DESIGN_SECURITY_CLASSIFICATION ( #198, ( #141 ) ) ;
#195 = MANIFOLD_SOLID_BREP ( 'Corps-Déplacer/Copier1[1]', #146 ) ;
#196 = MANIFOLD_SOLID_BREP ( 'Corps-Déplacer/Copier1[2]', #54 ) ;
#197 = ADVANCED_FACE ( 'NONE', ( #163, #114 ), #215, .T. ) ;
#198 = SECURITY_CLASSIFICATION ( '', '', #3 ) ;
#199 = VERTEX_POINT ( 'NONE', #116 ) ;
#200 = FACE_OUTER_BOUND ( 'NONE', #110, .T. ) ;
#201 = DIRECTION ( 'NONE',  ( -3.491481338843133355E-15, 1.030643345817079849E-16, -1.000000000000000000 ) ) ;
#202 = ORIENTED_EDGE ( 'NONE', *, *, #211, .T. ) ;
#203 = APPROVAL_PERSON_ORGANIZATION ( #205, #228, #63 ) ;
#204 = APPROVAL_ROLE ( '' ) ;
#205 = PERSON_AND_ORGANIZATION ( #173, #9 ) ;
#206 = APPLICATION_PROTOCOL_DEFINITION ( 'international standard', 'config_control_design', 1994, #174 ) ;
#207 = AXIS2_PLACEMENT_3D ( 'NONE', #115, #238, #111 ) ;
#208 = PERSON_AND_ORGANIZATION_ROLE ( 'classification_officer' ) ;
#209 = DIRECTION ( 'NONE',  ( -3.491481338843133355E-15, 1.030643345817079849E-16, -1.000000000000000000 ) ) ;
#210 = DATE_AND_TIME ( #83, #96 ) ;
#211 = EDGE_CURVE ( 'NONE', #77, #77, #32, .T. ) ;
#212 = LOCAL_TIME ( 7, 53, 2.000000000000000000, #39 ) ;
#213 = CARTESIAN_POINT ( 'NONE',  ( 1.396592535537253539E-15, 4.029999999999998472, 0.4000000000000000222 ) ) ;
#214 = AXIS2_PLACEMENT_3D ( 'NONE', #47, #122, #239 ) ;
#215 = CYLINDRICAL_SURFACE ( 'NONE', #138, 4.029999999999994920 ) ;
#216 = EDGE_CURVE ( 'NONE', #97, #97, #71, .T. ) ;
#217 = DIRECTION ( 'NONE',  ( -3.491481338843133355E-15, 1.030643345817079849E-16, -1.000000000000000000 ) ) ;
#218 =( GEOMETRIC_REPRESENTATION_CONTEXT ( 3 ) GLOBAL_UNCERTAINTY_ASSIGNED_CONTEXT ( ( #222 ) ) GLOBAL_UNIT_ASSIGNED_CONTEXT ( ( #108, #31, #133 ) ) REPRESENTATION_CONTEXT ( 'NONE', 'WORKASPACE' ) );
#219 = CARTESIAN_POINT ( 'NONE',  ( 6.281823795492844412E-14, -1.854318916842698141E-15, 17.99185842870425489 ) ) ;
#220 = CARTESIAN_POINT ( 'NONE',  ( -5.678207479149477282E-31, 3.799059892324148979, -1.626303258728256651E-16 ) ) ;
#221 = EDGE_LOOP ( 'NONE', ( #240 ) ) ;
#222 = UNCERTAINTY_MEASURE_WITH_UNIT (LENGTH_MEASURE( 1.000000000000000082E-05 ), #108, 'distance_accuracy_value', 'NONE');
#223 = PERSON_AND_ORGANIZATION ( #173, #9 ) ;
#224 = APPROVAL_DATE_TIME ( #46, #104 ) ;
#225 = CARTESIAN_POINT ( 'NONE',  ( 5.658939219019674103E-14, 4.029999999999998472, 16.20784609690826983 ) ) ;
#226 = APPROVAL_PERSON_ORGANIZATION ( #169, #104, #102 ) ;
#227 = FACE_BOUND ( 'NONE', #130, .T. ) ;
#228 = APPROVAL ( #135, 'UNSPECIFIED' ) ;
#229 = EDGE_LOOP ( 'NONE', ( #86 ) ) ;
#230 = DIRECTION ( 'NONE',  ( 3.491481338843133355E-15, 5.182153910173248934E-16, 1.000000000000000000 ) ) ;
#231 = DIRECTION ( 'NONE',  ( -3.598472008923184252E-31, -1.000000000000000000, -1.030643345817079849E-16 ) ) ;
#232 = DIRECTION ( 'NONE',  ( 1.000000000000000000, 0.0000000000000000000, 0.0000000000000000000 ) ) ;
#233 = APPLICATION_CONTEXT ( 'configuration controlled 3d designs of mechanical parts and assemblies' ) ;
#234 = ORIENTED_EDGE ( 'NONE', *, *, #216, .T. ) ;
#235 = CONICAL_SURFACE ( 'NONE', #214, 2.999999999999996003, 0.7853981633974453924 ) ;
#236 = ADVANCED_FACE ( 'NONE', ( #72, #166 ), #85, .T. ) ;
#237 = DIRECTION ( 'NONE',  ( -3.491481338843133355E-15, -5.182153910173248934E-16, -1.000000000000000000 ) ) ;
#238 = DIRECTION ( 'NONE',  ( 3.491481338843133355E-15, 5.182153910173248934E-16, 1.000000000000000000 ) ) ;
#239 = DIRECTION ( 'NONE',  ( 0.0000000000000000000, 1.000000000000000000, 0.0000000000000000000 ) ) ;
#240 = ORIENTED_EDGE ( 'NONE', *, *, #211, .F. ) ;
#241 = FACE_OUTER_BOUND ( 'NONE', #75, .T. ) ;
#242 = ADVANCED_FACE ( 'NONE', ( #128, #241 ), #150, .T. ) ;
#243 = CIRCLE ( 'NONE', #38, 2.999999999999996003 ) ;
ENDSEC;
END-ISO-10303-21;
