ISO-10303-21;
HEADER;
FILE_DESCRIPTION (( 'STEP AP203' ),
    '1' );
FILE_NAME ('341852.step',
    '2021-11-26T06:53:01',
    ( '' ),
    ( '' ),
    'SwSTEP 2.0',
    'SolidWorks 2019',
    '' );
FILE_SCHEMA (( 'CONFIG_CONTROL_DESIGN' ));
ENDSEC;

DATA;
#1 = DIRECTION ( 'NONE',  ( 0.0000000000000000000, 1.000000000000000000, 0.0000000000000000000 ) ) ;
#2 = PERSON_AND_ORGANIZATION ( #196, #140 ) ;
#3 = AXIS2_PLACEMENT_3D ( 'NONE', #65, #103, #72 ) ;
#4 = ADVANCED_FACE ( 'NONE', ( #115 ), #192, .T. ) ;
#5 = PERSON_AND_ORGANIZATION_ROLE ( 'creator' ) ;
#6 =( NAMED_UNIT ( * ) PLANE_ANGLE_UNIT ( ) SI_UNIT ( $, .RADIAN. ) );
#7 = ORIENTED_EDGE ( 'NONE', *, *, #95, .T. ) ;
#8 = LOCAL_TIME ( 7, 53, 1.000000000000000000, #132 ) ;
#9 = DIRECTION ( 'NONE',  ( 3.598472008923184252E-31, 1.000000000000000000, 1.030643345817079849E-16 ) ) ;
#10 = AXIS2_PLACEMENT_3D ( 'NONE', #84, #237, #88 ) ;
#11 = VERTEX_POINT ( 'NONE', #105 ) ;
#12 = PLANE ( 'NONE',  #25 ) ;
#13 = VERTEX_POINT ( 'NONE', #85 ) ;
#14 = APPROVAL ( #19, 'UNSPECIFIED' ) ;
#15 = DIRECTION ( 'NONE',  ( -1.805075068486629173E-30, 1.000000000000000000, -5.169940473130875992E-16 ) ) ;
#16 = DIRECTION ( 'NONE',  ( -3.491481338843133355E-15, 1.030643345817079849E-16, -1.000000000000000000 ) ) ;
#17 = LOCAL_TIME ( 7, 53, 1.000000000000000000, #76 ) ;
#18 = CALENDAR_DATE ( 2021, 26, 11 ) ;
#19 = APPROVAL_STATUS ( 'not_yet_approved' ) ;
#20 =( NAMED_UNIT ( * ) SI_UNIT ( $, .STERADIAN. ) SOLID_ANGLE_UNIT ( ) );
#21 = CC_DESIGN_APPROVAL ( #139, ( #118 ) ) ;
#22 = CONICAL_SURFACE ( 'NONE', #3, 3.784059892324147967, 0.5235987755982978165 ) ;
#23 = ADVANCED_FACE ( 'NONE', ( #177 ), #12, .T. ) ;
#24 = DIRECTION ( 'NONE',  ( 0.0000000000000000000, 1.000000000000000000, 0.0000000000000000000 ) ) ;
#25 = AXIS2_PLACEMENT_3D ( 'NONE', #127, #81, #158 ) ;
#26 = CARTESIAN_POINT ( 'NONE',  ( 5.668010353628507879E-14, 8.392791851225591767E-15, 16.23382685902180711 ) ) ;
#27 = APPROVAL ( #133, 'UNSPECIFIED' ) ;
#28 = EDGE_LOOP ( 'NONE', ( #138 ) ) ;
#29 = DIRECTION ( 'NONE',  ( 3.491481338843133355E-15, -1.030643345817079849E-16, 1.000000000000000000 ) ) ;
#30 = ORIENTED_EDGE ( 'NONE', *, *, #57, .F. ) ;
#31 = MANIFOLD_SOLID_BREP ( 'Corps-Déplacer/Copier1[2]', #214 ) ;
#32 = ORIENTED_EDGE ( 'NONE', *, *, #216, .F. ) ;
#33 = DIRECTION ( 'NONE',  ( 0.0000000000000000000, 1.000000000000000000, 0.0000000000000000000 ) ) ;
#34 = DIRECTION ( 'NONE',  ( -1.805075068486629173E-30, 1.000000000000000000, -5.169940473130875992E-16 ) ) ;
#35 = CC_DESIGN_APPROVAL ( #14, ( #170 ) ) ;
#36 = APPROVAL_DATE_TIME ( #91, #14 ) ;
#37 = DATE_AND_TIME ( #18, #204 ) ;
#38 = APPROVAL_ROLE ( '' ) ;
#39 = AXIS2_PLACEMENT_3D ( 'NONE', #184, #16, #167 ) ;
#40 = DATE_AND_TIME ( #209, #131 ) ;
#41 = DATE_TIME_ROLE ( 'classification_date' ) ;
#42 = ORIENTED_EDGE ( 'NONE', *, *, #198, .F. ) ;
#43 = AXIS2_PLACEMENT_3D ( 'NONE', #154, #156, #124 ) ;
#44 = ADVANCED_FACE ( 'NONE', ( #234, #160 ), #22, .T. ) ;
#45 = APPROVAL_DATE_TIME ( #40, #139 ) ;
#46 = LOCAL_TIME ( 7, 53, 1.000000000000000000, #150 ) ;
#47 = FACE_OUTER_BOUND ( 'NONE', #117, .T. ) ;
#48 = FACE_BOUND ( 'NONE', #92, .T. ) ;
#49 = VERTEX_POINT ( 'NONE', #126 ) ;
#50 = CC_DESIGN_DATE_AND_TIME_ASSIGNMENT ( #37, #41, ( #118 ) ) ;
#51 = DIRECTION ( 'NONE',  ( -3.491481338843133355E-15, 1.030643345817079849E-16, -1.000000000000000000 ) ) ;
#52 = CARTESIAN_POINT ( 'NONE',  ( 3.505447264198505636E-13, -1.034765919200348261E-14, 100.4000000000000057 ) ) ;
#53 = PERSON_AND_ORGANIZATION ( #196, #140 ) ;
#54 = EDGE_LOOP ( 'NONE', ( #231 ) ) ;
#55 = APPLICATION_PROTOCOL_DEFINITION ( 'international standard', 'config_control_design', 1994, #89 ) ;
#56 = APPROVAL_ROLE ( '' ) ;
#57 = EDGE_CURVE ( 'NONE', #176, #176, #208, .T. ) ;
#58 = PRODUCT ( '341852', '341852', '', ( #77 ) ) ;
#59 = PERSON_AND_ORGANIZATION ( #196, #140 ) ;
#60 = AXIS2_PLACEMENT_3D ( 'NONE', #203, #195, #15 ) ;
#61 = CALENDAR_DATE ( 2021, 26, 11 ) ;
#62 = EDGE_LOOP ( 'NONE', ( #42 ) ) ;
#63 = CONICAL_SURFACE ( 'NONE', #125, 2.999999999999996003, 0.7853981633974453924 ) ;
#64 = CARTESIAN_POINT ( 'NONE',  ( 3.505447264198505636E-13, 2.999999999999985789, 100.4000000000000057 ) ) ;
#65 = CARTESIAN_POINT ( 'NONE',  ( 6.830512169294518251E-30, 1.011414293508709584E-30, 1.956336439007787718E-15 ) ) ;
#66 = CIRCLE ( 'NONE', #225, 2.399999999999996358 ) ;
#67 = CARTESIAN_POINT ( 'NONE',  ( 5.668010353628506616E-14, -1.673128562939740745E-15, 16.23382685902180356 ) ) ;
#68 = FACE_OUTER_BOUND ( 'NONE', #28, .T. ) ;
#69 = EDGE_LOOP ( 'NONE', ( #201 ) ) ;
#70 = DIRECTION ( 'NONE',  ( -3.491481338843133355E-15, 1.030643345817079849E-16, -1.000000000000000000 ) ) ;
#71 = CARTESIAN_POINT ( 'NONE',  ( 0.0000000000000000000, 0.0000000000000000000, 0.0000000000000000000 ) ) ;
#72 = DIRECTION ( 'NONE',  ( 1.805075068486629173E-30, -1.000000000000000000, 5.169940473130875992E-16 ) ) ;
#73 =( LENGTH_UNIT ( ) NAMED_UNIT ( * ) SI_UNIT ( .MILLI., .METRE. ) );
#74 = CIRCLE ( 'NONE', #39, 2.999999999999996003 ) ;
#75 = PRODUCT_DEFINITION ( 'UNKNOWN', '', #170, #222 ) ;
#76 = COORDINATED_UNIVERSAL_TIME_OFFSET ( 1, 0, .AHEAD. ) ;
#77 = MECHANICAL_CONTEXT ( 'NONE', #165, 'mechanical' ) ;
#78 = ORIENTED_EDGE ( 'NONE', *, *, #232, .T. ) ;
#79 = CLOSED_SHELL ( 'NONE', ( #185, #112, #134, #152, #4 ) ) ;
#80 = EDGE_LOOP ( 'NONE', ( #147 ) ) ;
#81 = DIRECTION ( 'NONE',  ( 3.491481338843133355E-15, 5.169940473130875992E-16, 1.000000000000000000 ) ) ;
#82 = CARTESIAN_POINT ( 'NONE',  ( 1.396592535537253342E-15, 4.014999999999997904, 0.4000000000000000222 ) ) ;
#83 = AXIS2_PLACEMENT_3D ( 'NONE', #197, #202, #33 ) ;
#84 = CARTESIAN_POINT ( 'NONE',  ( -3.415256084647259125E-30, 3.784059892324147967, -9.781682195038938590E-16 ) ) ;
#85 = CARTESIAN_POINT ( 'NONE',  ( 6.281823795492844412E-14, 2.999999999999988010, 17.99185842870425489 ) ) ;
#86 = FACE_OUTER_BOUND ( 'NONE', #80, .T. ) ;
#87 = APPROVAL_PERSON_ORGANIZATION ( #2, #27, #38 ) ;
#88 = DIRECTION ( 'NONE',  ( -1.805075068486629173E-30, 1.000000000000000000, -5.169940473130875992E-16 ) ) ;
#89 = APPLICATION_CONTEXT ( 'configuration controlled 3d designs of mechanical parts and assemblies' ) ;
#90 = DATE_TIME_ROLE ( 'creation_date' ) ;
#91 = DATE_AND_TIME ( #205, #8 ) ;
#92 = EDGE_LOOP ( 'NONE', ( #228 ) ) ;
#93 = EDGE_CURVE ( 'NONE', #13, #13, #143, .T. ) ;
#94 = APPROVAL_PERSON_ORGANIZATION ( #153, #139, #56 ) ;
#95 = EDGE_CURVE ( 'NONE', #159, #159, #74, .T. ) ;
#96 = EDGE_LOOP ( 'NONE', ( #30 ) ) ;
#97 = CONICAL_SURFACE ( 'NONE', #188, 4.014999999999999680, 0.5235987755982931535 ) ;
#98 = SHAPE_DEFINITION_REPRESENTATION ( #207, #164 ) ;
#99 = FACE_BOUND ( 'NONE', #69, .T. ) ;
#100 = ADVANCED_FACE ( 'NONE', ( #86 ), #242, .T. ) ;
#101 = AXIS2_PLACEMENT_3D ( 'NONE', #230, #157, #116 ) ;
#102 = CARTESIAN_POINT ( 'NONE',  ( 3.526396152231565067E-13, -1.040949779275250653E-14, 101.0000000000000000 ) ) ;
#103 = DIRECTION ( 'NONE',  ( 3.491481338843133355E-15, 5.169940473130875992E-16, 1.000000000000000000 ) ) ;
#104 = EDGE_LOOP ( 'NONE', ( #32 ) ) ;
#105 = CARTESIAN_POINT ( 'NONE',  ( 0.0000000000000000000, 3.784059892324147967, 0.0000000000000000000 ) ) ;
#106 = FACE_OUTER_BOUND ( 'NONE', #233, .T. ) ;
#107 = UNCERTAINTY_MEASURE_WITH_UNIT (LENGTH_MEASURE( 1.000000000000000082E-05 ), #73, 'distance_accuracy_value', 'NONE');
#108 = CIRCLE ( 'NONE', #136, 3.784059892324147967 ) ;
#109 = DIRECTION ( 'NONE',  ( -3.491481338843133355E-15, -5.169940473130875992E-16, -1.000000000000000000 ) ) ;
#110 = PRODUCT_RELATED_PRODUCT_CATEGORY ( 'detail', '', ( #58 ) ) ;
#111 = COORDINATED_UNIVERSAL_TIME_OFFSET ( 1, 0, .AHEAD. ) ;
#112 = ADVANCED_FACE ( 'NONE', ( #99, #68 ), #63, .T. ) ;
#113 = PERSON_AND_ORGANIZATION_ROLE ( 'classification_officer' ) ;
#114 = EDGE_LOOP ( 'NONE', ( #175 ) ) ;
#115 = FACE_OUTER_BOUND ( 'NONE', #181, .T. ) ;
#116 = DIRECTION ( 'NONE',  ( 1.000000000000000000, 0.0000000000000000000, 0.0000000000000000000 ) ) ;
#117 = EDGE_LOOP ( 'NONE', ( #78 ) ) ;
#118 = SECURITY_CLASSIFICATION ( '', '', #171 ) ;
#119 = CC_DESIGN_PERSON_AND_ORGANIZATION_ASSIGNMENT ( #186, #190, ( #58 ) ) ;
#120 = EDGE_LOOP ( 'NONE', ( #241 ) ) ;
#121 = AXIS2_PLACEMENT_3D ( 'NONE', #26, #200, #178 ) ;
#122 = DIRECTION ( 'NONE',  ( -3.491481338843133355E-15, 1.030643345817079849E-16, -1.000000000000000000 ) ) ;
#123 = FACE_OUTER_BOUND ( 'NONE', #114, .T. ) ;
#124 = DIRECTION ( 'NONE',  ( -1.822797954837235268E-30, 1.000000000000000000, -5.130720118860421845E-16 ) ) ;
#125 = AXIS2_PLACEMENT_3D ( 'NONE', #52, #51, #212 ) ;
#126 = CARTESIAN_POINT ( 'NONE',  ( 5.668010353628506616E-14, 4.014999999999997904, 16.23382685902180356 ) ) ;
#127 = CARTESIAN_POINT ( 'NONE',  ( 5.668010353628506616E-14, 8.392791851225590189E-15, 16.23382685902180356 ) ) ;
#128 = ORIENTED_EDGE ( 'NONE', *, *, #93, .F. ) ;
#129 = DIRECTION ( 'NONE',  ( -3.598472008923184252E-31, -1.000000000000000000, -1.030643345817079849E-16 ) ) ;
#130 = FACE_OUTER_BOUND ( 'NONE', #96, .T. ) ;
#131 = LOCAL_TIME ( 7, 53, 1.000000000000000000, #135 ) ;
#132 = COORDINATED_UNIVERSAL_TIME_OFFSET ( 1, 0, .AHEAD. ) ;
#133 = APPROVAL_STATUS ( 'not_yet_approved' ) ;
#134 = ADVANCED_FACE ( 'NONE', ( #221, #106 ), #161, .T. ) ;
#135 = COORDINATED_UNIVERSAL_TIME_OFFSET ( 1, 0, .AHEAD. ) ;
#136 = AXIS2_PLACEMENT_3D ( 'NONE', #149, #109, #34 ) ;
#137 = APPROVAL_DATE_TIME ( #155, #27 ) ;
#138 = ORIENTED_EDGE ( 'NONE', *, *, #95, .F. ) ;
#139 = APPROVAL ( #226, 'UNSPECIFIED' ) ;
#140 = ORGANIZATION ( 'UNSPECIFIED', 'UNSPECIFIED', '' ) ;
#141 = CARTESIAN_POINT ( 'NONE',  ( 5.668010353628506616E-14, 4.014999999999997904, 16.23382685902180356 ) ) ;
#142 = CC_DESIGN_PERSON_AND_ORGANIZATION_ASSIGNMENT ( #59, #113, ( #118 ) ) ;
#143 = CIRCLE ( 'NONE', #183, 2.999999999999989786 ) ;
#144 = CARTESIAN_POINT ( 'NONE',  ( 6.281823795492844412E-14, -1.854318916842698141E-15, 17.99185842870425489 ) ) ;
#145 = CYLINDRICAL_SURFACE ( 'NONE', #60, 4.014999999999993463 ) ;
#146 = AXIS2_PLACEMENT_3D ( 'NONE', #219, #210, #9 ) ;
#147 = ORIENTED_EDGE ( 'NONE', *, *, #198, .T. ) ;
#148 = DIRECTION ( 'NONE',  ( -3.491481338843133355E-15, 1.030643345817079849E-16, -1.000000000000000000 ) ) ;
#149 = CARTESIAN_POINT ( 'NONE',  ( 6.830512169294518251E-30, 1.011414293508709584E-30, 1.956336439007787718E-15 ) ) ;
#150 = COORDINATED_UNIVERSAL_TIME_OFFSET ( 1, 0, .AHEAD. ) ;
#151 = CC_DESIGN_APPROVAL ( #27, ( #75 ) ) ;
#152 = ADVANCED_FACE ( 'NONE', ( #48, #123 ), #97, .T. ) ;
#153 = PERSON_AND_ORGANIZATION ( #196, #140 ) ;
#154 = CARTESIAN_POINT ( 'NONE',  ( 1.396592535537260639E-15, 2.067976189252361194E-16, 0.4000000000000020761 ) ) ;
#155 = DATE_AND_TIME ( #61, #17 ) ;
#156 = DIRECTION ( 'NONE',  ( -3.491481338843133355E-15, -5.169940473130875992E-16, -1.000000000000000000 ) ) ;
#157 = DIRECTION ( 'NONE',  ( 0.0000000000000000000, 0.0000000000000000000, 1.000000000000000000 ) ) ;
#158 = DIRECTION ( 'NONE',  ( 1.805075068486629173E-30, -1.000000000000000000, 5.169940473130875992E-16 ) ) ;
#159 = VERTEX_POINT ( 'NONE', #64 ) ;
#160 = FACE_BOUND ( 'NONE', #62, .T. ) ;
#161 = CYLINDRICAL_SURFACE ( 'NONE', #166, 2.999999999999993339 ) ;
#162 = VERTEX_POINT ( 'NONE', #141 ) ;
#163 = DIRECTION ( 'NONE',  ( -3.491481338843133355E-15, 1.030643345817079849E-16, -1.000000000000000000 ) ) ;
#164 = ADVANCED_BREP_SHAPE_REPRESENTATION ( '341852', ( #193, #31, #101 ), #218 ) ;
#165 = APPLICATION_CONTEXT ( 'configuration controlled 3d designs of mechanical parts and assemblies' ) ;
#166 = AXIS2_PLACEMENT_3D ( 'NONE', #71, #70, #239 ) ;
#167 = DIRECTION ( 'NONE',  ( 0.0000000000000000000, 1.000000000000000000, 0.0000000000000000000 ) ) ;
#168 = PERSON_AND_ORGANIZATION ( #196, #140 ) ;
#169 = PERSON_AND_ORGANIZATION ( #196, #140 ) ;
#170 = PRODUCT_DEFINITION_FORMATION_WITH_SPECIFIED_SOURCE ( 'ANY', '', #58, .NOT_KNOWN. ) ;
#171 = SECURITY_CLASSIFICATION_LEVEL ( 'unclassified' ) ;
#172 = PERSON_AND_ORGANIZATION ( #196, #140 ) ;
#173 = APPLICATION_PROTOCOL_DEFINITION ( 'international standard', 'config_control_design', 1994, #165 ) ;
#174 = ADVANCED_FACE ( 'NONE', ( #47, #130 ), #145, .T. ) ;
#175 = ORIENTED_EDGE ( 'NONE', *, *, #194, .F. ) ;
#176 = VERTEX_POINT ( 'NONE', #82 ) ;
#177 = FACE_OUTER_BOUND ( 'NONE', #120, .T. ) ;
#178 = DIRECTION ( 'NONE',  ( -3.069975502883771669E-30, 1.000000000000000000, -8.641212831764940724E-16 ) ) ;
#179 = CC_DESIGN_PERSON_AND_ORGANIZATION_ASSIGNMENT ( #169, #227, ( #170 ) ) ;
#180 = DIRECTION ( 'NONE',  ( 0.0000000000000000000, 1.000000000000000000, 0.0000000000000000000 ) ) ;
#181 = EDGE_LOOP ( 'NONE', ( #191 ) ) ;
#182 = FACE_OUTER_BOUND ( 'NONE', #104, .T. ) ;
#183 = AXIS2_PLACEMENT_3D ( 'NONE', #144, #163, #1 ) ;
#184 = CARTESIAN_POINT ( 'NONE',  ( 3.505447264198505636E-13, -1.034765919200348261E-14, 100.4000000000000057 ) ) ;
#185 = ADVANCED_FACE ( 'NONE', ( #182 ), #220, .T. ) ;
#186 = PERSON_AND_ORGANIZATION ( #196, #140 ) ;
#187 = CC_DESIGN_DATE_AND_TIME_ASSIGNMENT ( #206, #90, ( #75 ) ) ;
#188 = AXIS2_PLACEMENT_3D ( 'NONE', #67, #148, #180 ) ;
#189 = CALENDAR_DATE ( 2021, 26, 11 ) ;
#190 = PERSON_AND_ORGANIZATION_ROLE ( 'design_owner' ) ;
#191 = ORIENTED_EDGE ( 'NONE', *, *, #194, .T. ) ;
#192 = PLANE ( 'NONE',  #146 ) ;
#193 = MANIFOLD_SOLID_BREP ( 'Corps-Déplacer/Copier1[1]', #79 ) ;
#194 = EDGE_CURVE ( 'NONE', #162, #162, #243, .T. ) ;
#195 = DIRECTION ( 'NONE',  ( -3.491481338843133355E-15, -5.169940473130875992E-16, -1.000000000000000000 ) ) ;
#196 = PERSON ( 'UNSPECIFIED', 'UNSPECIFIED', 'UNSPECIFIED', ('UNSPECIFIED'), ('UNSPECIFIED'), ('UNSPECIFIED') ) ;
#197 = CARTESIAN_POINT ( 'NONE',  ( 5.668010353628506616E-14, -1.673128562939740745E-15, 16.23382685902180356 ) ) ;
#198 = EDGE_CURVE ( 'NONE', #11, #11, #108, .T. ) ;
#199 = EDGE_LOOP ( 'NONE', ( #7 ) ) ;
#200 = DIRECTION ( 'NONE',  ( -3.491481338843133355E-15, -5.169940473130875992E-16, -1.000000000000000000 ) ) ;
#201 = ORIENTED_EDGE ( 'NONE', *, *, #216, .T. ) ;
#202 = DIRECTION ( 'NONE',  ( -3.491481338843133355E-15, 1.030643345817079849E-16, -1.000000000000000000 ) ) ;
#203 = CARTESIAN_POINT ( 'NONE',  ( 0.0000000000000000000, 0.0000000000000000000, 0.0000000000000000000 ) ) ;
#204 = LOCAL_TIME ( 7, 53, 1.000000000000000000, #111 ) ;
#205 = CALENDAR_DATE ( 2021, 26, 11 ) ;
#206 = DATE_AND_TIME ( #189, #46 ) ;
#207 = PRODUCT_DEFINITION_SHAPE ( 'NONE', 'NONE',  #75 ) ;
#208 = CIRCLE ( 'NONE', #43, 4.014999999999997904 ) ;
#209 = CALENDAR_DATE ( 2021, 26, 11 ) ;
#210 = DIRECTION ( 'NONE',  ( -3.491481338843133355E-15, 1.030643345817079849E-16, -1.000000000000000000 ) ) ;
#211 = PERSON_AND_ORGANIZATION_ROLE ( 'creator' ) ;
#212 = DIRECTION ( 'NONE',  ( 0.0000000000000000000, 1.000000000000000000, 0.0000000000000000000 ) ) ;
#213 = CC_DESIGN_PERSON_AND_ORGANIZATION_ASSIGNMENT ( #172, #5, ( #170 ) ) ;
#214 = CLOSED_SHELL ( 'NONE', ( #23, #174, #44, #100 ) ) ;
#215 = CARTESIAN_POINT ( 'NONE',  ( 3.526396152231565067E-13, -1.040949779275250653E-14, 101.0000000000000000 ) ) ;
#216 = EDGE_CURVE ( 'NONE', #240, #240, #66, .T. ) ;
#217 = CARTESIAN_POINT ( 'NONE',  ( 3.526396152231565067E-13, 2.399999999999985700, 101.0000000000000000 ) ) ;
#218 =( GEOMETRIC_REPRESENTATION_CONTEXT ( 3 ) GLOBAL_UNCERTAINTY_ASSIGNED_CONTEXT ( ( #107 ) ) GLOBAL_UNIT_ASSIGNED_CONTEXT ( ( #73, #6, #20 ) ) REPRESENTATION_CONTEXT ( 'NONE', 'WORKASPACE' ) );
#219 = CARTESIAN_POINT ( 'NONE',  ( 5.668010353628506616E-14, 4.014999999999997904, 16.23382685902180356 ) ) ;
#220 = PLANE ( 'NONE',  #235 ) ;
#221 = FACE_OUTER_BOUND ( 'NONE', #199, .T. ) ;
#222 = DESIGN_CONTEXT ( 'detailed design', #89, 'design' ) ;
#223 = APPROVAL_ROLE ( '' ) ;
#224 = CC_DESIGN_SECURITY_CLASSIFICATION ( #118, ( #170 ) ) ;
#225 = AXIS2_PLACEMENT_3D ( 'NONE', #102, #122, #24 ) ;
#226 = APPROVAL_STATUS ( 'not_yet_approved' ) ;
#227 = PERSON_AND_ORGANIZATION_ROLE ( 'design_supplier' ) ;
#228 = ORIENTED_EDGE ( 'NONE', *, *, #93, .T. ) ;
#229 = CIRCLE ( 'NONE', #121, 4.014999999999989022 ) ;
#230 = CARTESIAN_POINT ( 'NONE',  ( 0.0000000000000000000, 0.0000000000000000000, 0.0000000000000000000 ) ) ;
#231 = ORIENTED_EDGE ( 'NONE', *, *, #57, .T. ) ;
#232 = EDGE_CURVE ( 'NONE', #49, #49, #229, .T. ) ;
#233 = EDGE_LOOP ( 'NONE', ( #128 ) ) ;
#234 = FACE_OUTER_BOUND ( 'NONE', #54, .T. ) ;
#235 = AXIS2_PLACEMENT_3D ( 'NONE', #215, #29, #129 ) ;
#236 = CC_DESIGN_PERSON_AND_ORGANIZATION_ASSIGNMENT ( #168, #211, ( #75 ) ) ;
#237 = DIRECTION ( 'NONE',  ( -3.491481338843133355E-15, -5.169940473130875992E-16, -1.000000000000000000 ) ) ;
#238 = APPROVAL_PERSON_ORGANIZATION ( #53, #14, #223 ) ;
#239 = DIRECTION ( 'NONE',  ( 3.598472008923184252E-31, 1.000000000000000000, 1.030643345817079726E-16 ) ) ;
#240 = VERTEX_POINT ( 'NONE', #217 ) ;
#241 = ORIENTED_EDGE ( 'NONE', *, *, #232, .F. ) ;
#242 = PLANE ( 'NONE',  #10 ) ;
#243 = CIRCLE ( 'NONE', #83, 4.014999999999999680 ) ;
ENDSEC;
END-ISO-10303-21;
