ISO-10303-21;
HEADER;
FILE_DESCRIPTION (( 'STEP AP203' ),
    '1' );
FILE_NAME ('341851.step',
    '2021-11-26T06:53:01',
    ( '' ),
    ( '' ),
    'SwSTEP 2.0',
    'SolidWorks 2019',
    '' );
FILE_SCHEMA (( 'CONFIG_CONTROL_DESIGN' ));
ENDSEC;

DATA;
#1 = CC_DESIGN_APPROVAL ( #230, ( #194 ) ) ;
#2 = APPROVAL_DATE_TIME ( #41, #230 ) ;
#3 = COORDINATED_UNIVERSAL_TIME_OFFSET ( 1, 0, .AHEAD. ) ;
#4 = ORIENTED_EDGE ( 'NONE', *, *, #101, .T. ) ;
#5 =( GEOMETRIC_REPRESENTATION_CONTEXT ( 3 ) GLOBAL_UNCERTAINTY_ASSIGNED_CONTEXT ( ( #110 ) ) GLOBAL_UNIT_ASSIGNED_CONTEXT ( ( #76, #115, #35 ) ) REPRESENTATION_CONTEXT ( 'NONE', 'WORKASPACE' ) );
#6 = DIRECTION ( 'NONE',  ( -3.491481338843133355E-15, 1.030643345817079849E-16, -1.000000000000000000 ) ) ;
#7 = CONICAL_SURFACE ( 'NONE', #197, 3.779059892324148073, 0.5235987755982978165 ) ;
#8 = FACE_OUTER_BOUND ( 'NONE', #210, .T. ) ;
#9 = ORIENTED_EDGE ( 'NONE', *, *, #101, .F. ) ;
#10 = PLANE ( 'NONE',  #46 ) ;
#11 = ORIENTED_EDGE ( 'NONE', *, *, #144, .F. ) ;
#12 = DIRECTION ( 'NONE',  ( -3.073803402513302586E-30, 1.000000000000000000, -8.651987411355670160E-16 ) ) ;
#13 = ADVANCED_BREP_SHAPE_REPRESENTATION ( '341851', ( #40, #121, #22 ), #5 ) ;
#14 = LOCAL_TIME ( 7, 53, 1.000000000000000000, #3 ) ;
#15 = DIRECTION ( 'NONE',  ( -1.825070770242269382E-30, 1.000000000000000000, -5.137117525492417817E-16 ) ) ;
#16 = CALENDAR_DATE ( 2021, 26, 11 ) ;
#17 = PERSON_AND_ORGANIZATION_ROLE ( 'design_owner' ) ;
#18 = COORDINATED_UNIVERSAL_TIME_OFFSET ( 1, 0, .AHEAD. ) ;
#19 = CIRCLE ( 'NONE', #227, 4.009999999999998010 ) ;
#20 = AXIS2_PLACEMENT_3D ( 'NONE', #88, #228, #107 ) ;
#21 = APPROVAL ( #237, 'UNSPECIFIED' ) ;
#22 = AXIS2_PLACEMENT_3D ( 'NONE', #161, #145, #116 ) ;
#23 = DATE_TIME_ROLE ( 'classification_date' ) ;
#24 = AXIS2_PLACEMENT_3D ( 'NONE', #67, #140, #209 ) ;
#25 = CC_DESIGN_PERSON_AND_ORGANIZATION_ASSIGNMENT ( #103, #81, ( #194 ) ) ;
#26 = EDGE_CURVE ( 'NONE', #216, #216, #130, .T. ) ;
#27 = ORIENTED_EDGE ( 'NONE', *, *, #163, .F. ) ;
#28 = FACE_OUTER_BOUND ( 'NONE', #71, .T. ) ;
#29 = CC_DESIGN_APPROVAL ( #21, ( #211 ) ) ;
#30 = FACE_BOUND ( 'NONE', #91, .T. ) ;
#31 = ORIENTED_EDGE ( 'NONE', *, *, #26, .T. ) ;
#32 = FACE_OUTER_BOUND ( 'NONE', #215, .T. ) ;
#33 = EDGE_LOOP ( 'NONE', ( #9 ) ) ;
#34 = CARTESIAN_POINT ( 'NONE',  ( 6.281823795492844412E-14, 2.999999999999988010, 17.99185842870425489 ) ) ;
#35 =( NAMED_UNIT ( * ) SI_UNIT ( $, .STERADIAN. ) SOLID_ANGLE_UNIT ( ) );
#36 = VERTEX_POINT ( 'NONE', #164 ) ;
#37 = APPLICATION_CONTEXT ( 'configuration controlled 3d designs of mechanical parts and assemblies' ) ;
#38 = EDGE_CURVE ( 'NONE', #200, #200, #64, .T. ) ;
#39 = PERSON_AND_ORGANIZATION ( #179, #83 ) ;
#40 = MANIFOLD_SOLID_BREP ( 'Corps-Déplacer/Copier1[1]', #199 ) ;
#41 = DATE_AND_TIME ( #169, #14 ) ;
#42 = APPROVAL_PERSON_ORGANIZATION ( #186, #21, #98 ) ;
#43 = ADVANCED_FACE ( 'NONE', ( #128, #28 ), #60, .T. ) ;
#44 = CALENDAR_DATE ( 2021, 26, 11 ) ;
#45 = EDGE_CURVE ( 'NONE', #181, #181, #201, .T. ) ;
#46 = AXIS2_PLACEMENT_3D ( 'NONE', #96, #70, #135 ) ;
#47 = PRODUCT_DEFINITION_SHAPE ( 'NONE', 'NONE',  #211 ) ;
#48 = PLANE ( 'NONE',  #176 ) ;
#49 = CARTESIAN_POINT ( 'NONE',  ( 0.0000000000000000000, 0.0000000000000000000, 0.0000000000000000000 ) ) ;
#50 = DIRECTION ( 'NONE',  ( -3.491481338843133355E-15, 1.030643345817079849E-16, -1.000000000000000000 ) ) ;
#51 = CARTESIAN_POINT ( 'NONE',  ( -1.368455531567204171E-45, 3.779059892324148073, 0.0000000000000000000 ) ) ;
#52 = COORDINATED_UNIVERSAL_TIME_OFFSET ( 1, 0, .AHEAD. ) ;
#53 = CARTESIAN_POINT ( 'NONE',  ( 5.671034065164784752E-14, 4.009999999999998010, 16.24248711305964932 ) ) ;
#54 = ADVANCED_FACE ( 'NONE', ( #126, #198 ), #213, .T. ) ;
#55 = CARTESIAN_POINT ( 'NONE',  ( -3.408063285113380340E-30, 3.779059892324148073, -9.761081198396458204E-16 ) ) ;
#56 = LOCAL_TIME ( 7, 53, 1.000000000000000000, #224 ) ;
#57 = VERTEX_POINT ( 'NONE', #59 ) ;
#58 = CIRCLE ( 'NONE', #62, 2.999999999999996003 ) ;
#59 = CARTESIAN_POINT ( 'NONE',  ( 5.671034065164784752E-14, 4.009999999999998010, 16.24248711305964932 ) ) ;
#60 = CONICAL_SURFACE ( 'NONE', #185, 4.009999999999999787, 0.5235987755982929315 ) ;
#61 = CALENDAR_DATE ( 2021, 26, 11 ) ;
#62 = AXIS2_PLACEMENT_3D ( 'NONE', #219, #50, #129 ) ;
#63 = CLOSED_SHELL ( 'NONE', ( #137, #54, #203, #65 ) ) ;
#64 = CIRCLE ( 'NONE', #109, 2.999999999999989786 ) ;
#65 = ADVANCED_FACE ( 'NONE', ( #32 ), #94, .T. ) ;
#66 = DIRECTION ( 'NONE',  ( 0.0000000000000000000, 1.000000000000000000, 0.0000000000000000000 ) ) ;
#67 = CARTESIAN_POINT ( 'NONE',  ( 5.671034065164784752E-14, -1.674021126259459752E-15, 16.24248711305964932 ) ) ;
#68 = DIRECTION ( 'NONE',  ( 0.0000000000000000000, 1.000000000000000000, 0.0000000000000000000 ) ) ;
#69 = ADVANCED_FACE ( 'NONE', ( #8 ), #10, .T. ) ;
#70 = DIRECTION ( 'NONE',  ( -3.491481338843133355E-15, 1.030643345817079849E-16, -1.000000000000000000 ) ) ;
#71 = EDGE_LOOP ( 'NONE', ( #124 ) ) ;
#72 = DIRECTION ( 'NONE',  ( -1.803656667117492003E-30, 1.000000000000000000, -5.165878010148881721E-16 ) ) ;
#73 = ORIENTED_EDGE ( 'NONE', *, *, #243, .T. ) ;
#74 = DATE_AND_TIME ( #61, #56 ) ;
#75 = DIRECTION ( 'NONE',  ( 3.491481338843133355E-15, 5.165878010148881721E-16, 1.000000000000000000 ) ) ;
#76 =( LENGTH_UNIT ( ) NAMED_UNIT ( * ) SI_UNIT ( .MILLI., .METRE. ) );
#77 = PLANE ( 'NONE',  #208 ) ;
#78 = DATE_AND_TIME ( #239, #226 ) ;
#79 = MECHANICAL_CONTEXT ( 'NONE', #37, 'mechanical' ) ;
#80 = AXIS2_PLACEMENT_3D ( 'NONE', #55, #232, #72 ) ;
#81 = PERSON_AND_ORGANIZATION_ROLE ( 'classification_officer' ) ;
#82 = CC_DESIGN_DATE_AND_TIME_ASSIGNMENT ( #78, #240, ( #211 ) ) ;
#83 = ORGANIZATION ( 'UNSPECIFIED', 'UNSPECIFIED', '' ) ;
#84 = EDGE_LOOP ( 'NONE', ( #229 ) ) ;
#85 = PRODUCT ( '341851', '341851', '', ( #79 ) ) ;
#86 = CARTESIAN_POINT ( 'NONE',  ( 6.281823795492844412E-14, -1.854318916842698141E-15, 17.99185842870425489 ) ) ;
#87 = APPROVAL_PERSON_ORGANIZATION ( #220, #225, #149 ) ;
#88 = CARTESIAN_POINT ( 'NONE',  ( 6.816126570226760680E-30, 1.008491094361479091E-30, 1.952216239679291641E-15 ) ) ;
#89 = AXIS2_PLACEMENT_3D ( 'NONE', #238, #236, #12 ) ;
#90 = DIRECTION ( 'NONE',  ( -3.491481338843133355E-15, 1.030643345817079849E-16, -1.000000000000000000 ) ) ;
#91 = EDGE_LOOP ( 'NONE', ( #235 ) ) ;
#92 = FACE_OUTER_BOUND ( 'NONE', #33, .T. ) ;
#93 = ORIENTED_EDGE ( 'NONE', *, *, #144, .T. ) ;
#94 = PLANE ( 'NONE',  #80 ) ;
#95 = VERTEX_POINT ( 'NONE', #134 ) ;
#96 = CARTESIAN_POINT ( 'NONE',  ( 5.671034065164783490E-14, 4.009999999999998010, 16.24248711305964576 ) ) ;
#97 = PERSON_AND_ORGANIZATION ( #179, #83 ) ;
#98 = APPROVAL_ROLE ( '' ) ;
#99 = APPLICATION_CONTEXT ( 'configuration controlled 3d designs of mechanical parts and assemblies' ) ;
#100 = PERSON_AND_ORGANIZATION ( #179, #83 ) ;
#101 = EDGE_CURVE ( 'NONE', #36, #36, #58, .T. ) ;
#102 = APPROVAL_PERSON_ORGANIZATION ( #170, #230, #118 ) ;
#103 = PERSON_AND_ORGANIZATION ( #179, #83 ) ;
#104 = CC_DESIGN_PERSON_AND_ORGANIZATION_ASSIGNMENT ( #97, #166, ( #211 ) ) ;
#105 = EDGE_LOOP ( 'NONE', ( #11 ) ) ;
#106 = DIRECTION ( 'NONE',  ( -3.491481338843133355E-15, 1.030643345817079849E-16, -1.000000000000000000 ) ) ;
#107 = DIRECTION ( 'NONE',  ( -1.803656667117492353E-30, 1.000000000000000000, -5.165878010148881721E-16 ) ) ;
#108 = FACE_BOUND ( 'NONE', #157, .T. ) ;
#109 = AXIS2_PLACEMENT_3D ( 'NONE', #86, #233, #66 ) ;
#110 = UNCERTAINTY_MEASURE_WITH_UNIT (LENGTH_MEASURE( 1.000000000000000082E-05 ), #76, 'distance_accuracy_value', 'NONE');
#111 = DIRECTION ( 'NONE',  ( -3.598472008923184252E-31, -1.000000000000000000, -1.030643345817079849E-16 ) ) ;
#112 = CARTESIAN_POINT ( 'NONE',  ( 3.526396152231565067E-13, 2.399999999999985700, 101.0000000000000000 ) ) ;
#113 = CC_DESIGN_APPROVAL ( #225, ( #173 ) ) ;
#114 = DIRECTION ( 'NONE',  ( 0.0000000000000000000, 1.000000000000000000, 0.0000000000000000000 ) ) ;
#115 =( NAMED_UNIT ( * ) PLANE_ANGLE_UNIT ( ) SI_UNIT ( $, .RADIAN. ) );
#116 = DIRECTION ( 'NONE',  ( 1.000000000000000000, 0.0000000000000000000, 0.0000000000000000000 ) ) ;
#117 = APPLICATION_PROTOCOL_DEFINITION ( 'international standard', 'config_control_design', 1994, #99 ) ;
#118 = APPROVAL_ROLE ( '' ) ;
#119 = CC_DESIGN_PERSON_AND_ORGANIZATION_ASSIGNMENT ( #39, #17, ( #85 ) ) ;
#120 = APPROVAL_STATUS ( 'not_yet_approved' ) ;
#121 = MANIFOLD_SOLID_BREP ( 'Corps-Déplacer/Copier1[2]', #63 ) ;
#122 = AXIS2_PLACEMENT_3D ( 'NONE', #234, #106, #114 ) ;
#123 = CC_DESIGN_DATE_AND_TIME_ASSIGNMENT ( #167, #23, ( #194 ) ) ;
#124 = ORIENTED_EDGE ( 'NONE', *, *, #45, .F. ) ;
#125 = CARTESIAN_POINT ( 'NONE',  ( 3.526396152231565067E-13, -1.040949779275250653E-14, 101.0000000000000000 ) ) ;
#126 = FACE_OUTER_BOUND ( 'NONE', #153, .T. ) ;
#127 = CARTESIAN_POINT ( 'NONE',  ( 0.0000000000000000000, 0.0000000000000000000, 0.0000000000000000000 ) ) ;
#128 = FACE_BOUND ( 'NONE', #84, .T. ) ;
#129 = DIRECTION ( 'NONE',  ( 0.0000000000000000000, 1.000000000000000000, 0.0000000000000000000 ) ) ;
#130 = CIRCLE ( 'NONE', #20, 3.779059892324148073 ) ;
#131 = APPROVAL_DATE_TIME ( #74, #225 ) ;
#132 = DESIGN_CONTEXT ( 'detailed design', #99, 'design' ) ;
#133 = DIRECTION ( 'NONE',  ( 0.0000000000000000000, 1.000000000000000000, 0.0000000000000000000 ) ) ;
#134 = CARTESIAN_POINT ( 'NONE',  ( 1.396592535537253342E-15, 4.009999999999998010, 0.4000000000000000222 ) ) ;
#135 = DIRECTION ( 'NONE',  ( 3.598472008923184252E-31, 1.000000000000000000, 1.030643345817079849E-16 ) ) ;
#136 = APPROVAL_STATUS ( 'not_yet_approved' ) ;
#137 = ADVANCED_FACE ( 'NONE', ( #159 ), #48, .T. ) ;
#138 = PERSON_AND_ORGANIZATION_ROLE ( 'design_supplier' ) ;
#139 = AXIS2_PLACEMENT_3D ( 'NONE', #127, #90, #196 ) ;
#140 = DIRECTION ( 'NONE',  ( -3.491481338843133355E-15, 1.030643345817079849E-16, -1.000000000000000000 ) ) ;
#141 = DIRECTION ( 'NONE',  ( -1.803656667117491652E-30, 1.000000000000000000, -5.165878010148881721E-16 ) ) ;
#142 = EDGE_LOOP ( 'NONE', ( #172 ) ) ;
#143 = FACE_OUTER_BOUND ( 'NONE', #195, .T. ) ;
#144 = EDGE_CURVE ( 'NONE', #57, #57, #188, .T. ) ;
#145 = DIRECTION ( 'NONE',  ( 0.0000000000000000000, 0.0000000000000000000, 1.000000000000000000 ) ) ;
#146 = DIRECTION ( 'NONE',  ( -3.491481338843133355E-15, 1.030643345817079849E-16, -1.000000000000000000 ) ) ;
#147 = DIRECTION ( 'NONE',  ( 3.491481338843133355E-15, 5.165878010148881721E-16, 1.000000000000000000 ) ) ;
#148 = VERTEX_POINT ( 'NONE', #112 ) ;
#149 = APPROVAL_ROLE ( '' ) ;
#150 = AXIS2_PLACEMENT_3D ( 'NONE', #183, #146, #133 ) ;
#151 = ADVANCED_FACE ( 'NONE', ( #156 ), #77, .T. ) ;
#152 = ORIENTED_EDGE ( 'NONE', *, *, #45, .T. ) ;
#153 = EDGE_LOOP ( 'NONE', ( #93 ) ) ;
#154 = AXIS2_PLACEMENT_3D ( 'NONE', #49, #177, #141 ) ;
#155 = CARTESIAN_POINT ( 'NONE',  ( 5.671034065164784752E-14, -1.674021126259459752E-15, 16.24248711305964932 ) ) ;
#156 = FACE_OUTER_BOUND ( 'NONE', #191, .T. ) ;
#157 = EDGE_LOOP ( 'NONE', ( #174 ) ) ;
#158 = ADVANCED_FACE ( 'NONE', ( #143, #214 ), #162, .T. ) ;
#159 = FACE_OUTER_BOUND ( 'NONE', #105, .T. ) ;
#160 = CARTESIAN_POINT ( 'NONE',  ( 5.671034065164783490E-14, 8.390670700748140101E-15, 16.24248711305964576 ) ) ;
#161 = CARTESIAN_POINT ( 'NONE',  ( 0.0000000000000000000, 0.0000000000000000000, 0.0000000000000000000 ) ) ;
#162 = CYLINDRICAL_SURFACE ( 'NONE', #139, 2.999999999999993339 ) ;
#163 = EDGE_CURVE ( 'NONE', #148, #148, #223, .T. ) ;
#164 = CARTESIAN_POINT ( 'NONE',  ( 3.505447264198505636E-13, 2.999999999999985789, 100.4000000000000057 ) ) ;
#165 = LOCAL_TIME ( 7, 53, 1.000000000000000000, #18 ) ;
#166 = PERSON_AND_ORGANIZATION_ROLE ( 'creator' ) ;
#167 = DATE_AND_TIME ( #44, #165 ) ;
#168 = SECURITY_CLASSIFICATION_LEVEL ( 'unclassified' ) ;
#169 = CALENDAR_DATE ( 2021, 26, 11 ) ;
#170 = PERSON_AND_ORGANIZATION ( #179, #83 ) ;
#171 = LOCAL_TIME ( 7, 53, 1.000000000000000000, #205 ) ;
#172 = ORIENTED_EDGE ( 'NONE', *, *, #38, .F. ) ;
#173 = PRODUCT_DEFINITION_FORMATION_WITH_SPECIFIED_SOURCE ( 'ANY', '', #85, .NOT_KNOWN. ) ;
#174 = ORIENTED_EDGE ( 'NONE', *, *, #26, .F. ) ;
#175 = FACE_OUTER_BOUND ( 'NONE', #231, .T. ) ;
#176 = AXIS2_PLACEMENT_3D ( 'NONE', #160, #75, #212 ) ;
#177 = DIRECTION ( 'NONE',  ( -3.491481338843133355E-15, -5.165878010148881721E-16, -1.000000000000000000 ) ) ;
#178 = CARTESIAN_POINT ( 'NONE',  ( 1.396592535537260639E-15, 2.066351204059563585E-16, 0.4000000000000020761 ) ) ;
#179 = PERSON ( 'UNSPECIFIED', 'UNSPECIFIED', 'UNSPECIFIED', ('UNSPECIFIED'), ('UNSPECIFIED'), ('UNSPECIFIED') ) ;
#180 = EDGE_LOOP ( 'NONE', ( #190 ) ) ;
#181 = VERTEX_POINT ( 'NONE', #53 ) ;
#182 = CC_DESIGN_PERSON_AND_ORGANIZATION_ASSIGNMENT ( #217, #202, ( #173 ) ) ;
#183 = CARTESIAN_POINT ( 'NONE',  ( 3.505447264198505636E-13, -1.034765919200348261E-14, 100.4000000000000057 ) ) ;
#184 = APPLICATION_PROTOCOL_DEFINITION ( 'international standard', 'config_control_design', 1994, #37 ) ;
#185 = AXIS2_PLACEMENT_3D ( 'NONE', #155, #6, #68 ) ;
#186 = PERSON_AND_ORGANIZATION ( #179, #83 ) ;
#187 = PRODUCT_RELATED_PRODUCT_CATEGORY ( 'detail', '', ( #85 ) ) ;
#188 = CIRCLE ( 'NONE', #89, 4.009999999999989129 ) ;
#189 = ADVANCED_FACE ( 'NONE', ( #30, #92 ), #241, .T. ) ;
#190 = ORIENTED_EDGE ( 'NONE', *, *, #243, .F. ) ;
#191 = EDGE_LOOP ( 'NONE', ( #27 ) ) ;
#192 = DIRECTION ( 'NONE',  ( 3.491481338843133355E-15, -1.030643345817079849E-16, 1.000000000000000000 ) ) ;
#193 = CC_DESIGN_PERSON_AND_ORGANIZATION_ASSIGNMENT ( #100, #138, ( #173 ) ) ;
#194 = SECURITY_CLASSIFICATION ( '', '', #168 ) ;
#195 = EDGE_LOOP ( 'NONE', ( #4 ) ) ;
#196 = DIRECTION ( 'NONE',  ( 3.598472008923184252E-31, 1.000000000000000000, 1.030643345817079726E-16 ) ) ;
#197 = AXIS2_PLACEMENT_3D ( 'NONE', #218, #147, #206 ) ;
#198 = FACE_OUTER_BOUND ( 'NONE', #180, .T. ) ;
#199 = CLOSED_SHELL ( 'NONE', ( #151, #189, #158, #43, #69 ) ) ;
#200 = VERTEX_POINT ( 'NONE', #34 ) ;
#201 = CIRCLE ( 'NONE', #24, 4.009999999999999787 ) ;
#202 = PERSON_AND_ORGANIZATION_ROLE ( 'creator' ) ;
#203 = ADVANCED_FACE ( 'NONE', ( #175, #108 ), #7, .T. ) ;
#204 = DIRECTION ( 'NONE',  ( -3.491481338843133355E-15, -5.165878010148881721E-16, -1.000000000000000000 ) ) ;
#205 = COORDINATED_UNIVERSAL_TIME_OFFSET ( 1, 0, .AHEAD. ) ;
#206 = DIRECTION ( 'NONE',  ( 1.803656667117492703E-30, -1.000000000000000000, 5.165878010148881721E-16 ) ) ;
#207 = APPROVAL_DATE_TIME ( #222, #21 ) ;
#208 = AXIS2_PLACEMENT_3D ( 'NONE', #125, #192, #111 ) ;
#209 = DIRECTION ( 'NONE',  ( 0.0000000000000000000, 1.000000000000000000, 0.0000000000000000000 ) ) ;
#210 = EDGE_LOOP ( 'NONE', ( #152 ) ) ;
#211 = PRODUCT_DEFINITION ( 'UNKNOWN', '', #173, #132 ) ;
#212 = DIRECTION ( 'NONE',  ( 1.803656667117492003E-30, -1.000000000000000000, 5.165878010148881721E-16 ) ) ;
#213 = CYLINDRICAL_SURFACE ( 'NONE', #154, 4.009999999999993570 ) ;
#214 = FACE_OUTER_BOUND ( 'NONE', #142, .T. ) ;
#215 = EDGE_LOOP ( 'NONE', ( #31 ) ) ;
#216 = VERTEX_POINT ( 'NONE', #51 ) ;
#217 = PERSON_AND_ORGANIZATION ( #179, #83 ) ;
#218 = CARTESIAN_POINT ( 'NONE',  ( 6.816126570226760680E-30, 1.008491094361479091E-30, 1.952216239679291641E-15 ) ) ;
#219 = CARTESIAN_POINT ( 'NONE',  ( 3.505447264198505636E-13, -1.034765919200348261E-14, 100.4000000000000057 ) ) ;
#220 = PERSON_AND_ORGANIZATION ( #179, #83 ) ;
#221 = CC_DESIGN_SECURITY_CLASSIFICATION ( #194, ( #173 ) ) ;
#222 = DATE_AND_TIME ( #16, #171 ) ;
#223 = CIRCLE ( 'NONE', #122, 2.399999999999996358 ) ;
#224 = COORDINATED_UNIVERSAL_TIME_OFFSET ( 1, 0, .AHEAD. ) ;
#225 = APPROVAL ( #136, 'UNSPECIFIED' ) ;
#226 = LOCAL_TIME ( 7, 53, 1.000000000000000000, #52 ) ;
#227 = AXIS2_PLACEMENT_3D ( 'NONE', #178, #204, #15 ) ;
#228 = DIRECTION ( 'NONE',  ( -3.491481338843133355E-15, -5.165878010148881721E-16, -1.000000000000000000 ) ) ;
#229 = ORIENTED_EDGE ( 'NONE', *, *, #38, .T. ) ;
#230 = APPROVAL ( #120, 'UNSPECIFIED' ) ;
#231 = EDGE_LOOP ( 'NONE', ( #73 ) ) ;
#232 = DIRECTION ( 'NONE',  ( -3.491481338843133355E-15, -5.165878010148881721E-16, -1.000000000000000000 ) ) ;
#233 = DIRECTION ( 'NONE',  ( -3.491481338843133355E-15, 1.030643345817079849E-16, -1.000000000000000000 ) ) ;
#234 = CARTESIAN_POINT ( 'NONE',  ( 3.526396152231565067E-13, -1.040949779275250653E-14, 101.0000000000000000 ) ) ;
#235 = ORIENTED_EDGE ( 'NONE', *, *, #163, .T. ) ;
#236 = DIRECTION ( 'NONE',  ( -3.491481338843133355E-15, -5.165878010148881721E-16, -1.000000000000000000 ) ) ;
#237 = APPROVAL_STATUS ( 'not_yet_approved' ) ;
#238 = CARTESIAN_POINT ( 'NONE',  ( 5.671034065164786014E-14, 8.390670700748144834E-15, 16.24248711305965287 ) ) ;
#239 = CALENDAR_DATE ( 2021, 26, 11 ) ;
#240 = DATE_TIME_ROLE ( 'creation_date' ) ;
#241 = CONICAL_SURFACE ( 'NONE', #150, 2.999999999999996003, 0.7853981633974453924 ) ;
#242 = SHAPE_DEFINITION_REPRESENTATION ( #47, #13 ) ;
#243 = EDGE_CURVE ( 'NONE', #95, #95, #19, .T. ) ;
ENDSEC;
END-ISO-10303-21;
