ISO-10303-21;
HEADER;
FILE_DESCRIPTION (( 'STEP AP203' ),
    '1' );
FILE_NAME ('341850.STEP',
    '2021-11-26T08:10:38',
    ( '' ),
    ( '' ),
    'SwSTEP 2.0',
    'SolidWorks 2019',
    '' );
FILE_SCHEMA (( 'CONFIG_CONTROL_DESIGN' ));
ENDSEC;

DATA;
#1 = DIRECTION ( 'NONE',  ( -3.491481338843133355E-15, -6.372241829308259950E-16, -1.000000000000000000 ) ) ;
#2 = FACE_BOUND ( 'NONE', #121, .T. ) ;
#3 = APPROVAL ( #28, 'UNSPECIFIED' ) ;
#4 = CARTESIAN_POINT ( 'NONE',  ( 5.671034065164784752E-14, 5.009999999999998010, 16.24248711305964932 ) ) ;
#5 = DIRECTION ( 'NONE',  ( -2.224856343362542064E-30, 1.000000000000000000, -6.372241829308259950E-16 ) ) ;
#6 = EDGE_CURVE ( 'NONE', #94, #94, #38, .T. ) ;
#7 = PLANE ( 'NONE',  #208 ) ;
#8 = CIRCLE ( 'NONE', #224, 5.009999999999998010 ) ;
#9 = AXIS2_PLACEMENT_3D ( 'NONE', #90, #172, #5 ) ;
#10 = SHAPE_DEFINITION_REPRESENTATION ( #134, #138 ) ;
#11 = AXIS2_PLACEMENT_3D ( 'NONE', #88, #240, #202 ) ;
#12 = DATE_AND_TIME ( #99, #141 ) ;
#13 = EDGE_LOOP ( 'NONE', ( #162 ) ) ;
#14 = DIRECTION ( 'NONE',  ( -3.491481338843133355E-15, 1.224646799147353454E-16, -1.000000000000000000 ) ) ;
#15 = ADVANCED_FACE ( 'NONE', ( #2, #125 ), #191, .T. ) ;
#16 = AXIS2_PLACEMENT_3D ( 'NONE', #108, #166, #226 ) ;
#17 = CARTESIAN_POINT ( 'NONE',  ( 5.671034065164783490E-14, 5.009999999999998010, 16.24248711305964576 ) ) ;
#18 = CARTESIAN_POINT ( 'NONE',  ( 0.0000000000000000000, 0.0000000000000000000, 0.0000000000000000000 ) ) ;
#19 = AXIS2_PLACEMENT_3D ( 'NONE', #223, #178, #126 ) ;
#20 = DIRECTION ( 'NONE',  ( 3.491481338843133355E-15, -1.224646799147353454E-16, 1.000000000000000000 ) ) ;
#21 = DIRECTION ( 'NONE',  ( 0.0000000000000000000, 1.000000000000000000, 0.0000000000000000000 ) ) ;
#22 = APPLICATION_PROTOCOL_DEFINITION ( 'international standard', 'config_control_design', 1994, #232 ) ;
#23 = EDGE_CURVE ( 'NONE', #193, #193, #104, .T. ) ;
#24 = VERTEX_POINT ( 'NONE', #152 ) ;
#25 = CARTESIAN_POINT ( 'NONE',  ( 4.064084278413407478E-13, 2.999999999999997335, 116.4000000000000057 ) ) ;
#26 = PERSON_AND_ORGANIZATION ( #229, #105 ) ;
#27 = EDGE_LOOP ( 'NONE', ( #50 ) ) ;
#28 = APPROVAL_STATUS ( 'not_yet_approved' ) ;
#29 = CC_DESIGN_PERSON_AND_ORGANIZATION_ASSIGNMENT ( #26, #111, ( #153 ) ) ;
#30 = CALENDAR_DATE ( 2021, 26, 11 ) ;
#31 = ORIENTED_EDGE ( 'NONE', *, *, #23, .F. ) ;
#32 = DIRECTION ( 'NONE',  ( 0.0000000000000000000, 1.000000000000000000, 0.0000000000000000000 ) ) ;
#33 = FACE_OUTER_BOUND ( 'NONE', #142, .T. ) ;
#34 = CIRCLE ( 'NONE', #11, 5.009999999999999787 ) ;
#35 = CARTESIAN_POINT ( 'NONE',  ( 4.064084278413407478E-13, -1.425488874207519270E-14, 116.4000000000000057 ) ) ;
#36 = FACE_BOUND ( 'NONE', #37, .T. ) ;
#37 = EDGE_LOOP ( 'NONE', ( #184 ) ) ;
#38 = CIRCLE ( 'NONE', #74, 5.009999999999987352 ) ;
#39 = CC_DESIGN_SECURITY_CLASSIFICATION ( #160, ( #233 ) ) ;
#40 =( NAMED_UNIT ( * ) SI_UNIT ( $, .STERADIAN. ) SOLID_ANGLE_UNIT ( ) );
#41 = CC_DESIGN_DATE_AND_TIME_ASSIGNMENT ( #12, #46, ( #160 ) ) ;
#42 = CIRCLE ( 'NONE', #70, 2.400000000000011902 ) ;
#43 =( GEOMETRIC_REPRESENTATION_CONTEXT ( 3 ) GLOBAL_UNCERTAINTY_ASSIGNED_CONTEXT ( ( #124 ) ) GLOBAL_UNIT_ASSIGNED_CONTEXT ( ( #75, #227, #40 ) ) REPRESENTATION_CONTEXT ( 'NONE', 'WORKASPACE' ) );
#44 = CALENDAR_DATE ( 2021, 26, 11 ) ;
#45 = PERSON_AND_ORGANIZATION ( #229, #105 ) ;
#46 = DATE_TIME_ROLE ( 'classification_date' ) ;
#47 = APPROVAL_DATE_TIME ( #137, #117 ) ;
#48 = ADVANCED_FACE ( 'NONE', ( #165 ), #149, .T. ) ;
#49 = DATE_AND_TIME ( #198, #158 ) ;
#50 = ORIENTED_EDGE ( 'NONE', *, *, #23, .T. ) ;
#51 = LOCAL_TIME ( 9, 10, 38.00000000000000000, #214 ) ;
#52 = FACE_OUTER_BOUND ( 'NONE', #128, .T. ) ;
#53 = FACE_OUTER_BOUND ( 'NONE', #65, .T. ) ;
#54 = CARTESIAN_POINT ( 'NONE',  ( 5.671034065164783490E-14, 1.035010557938390405E-14, 16.24248711305964576 ) ) ;
#55 = FACE_OUTER_BOUND ( 'NONE', #220, .T. ) ;
#56 = DIRECTION ( 'NONE',  ( 4.275831445896959482E-31, 1.000000000000000000, 1.224646799147353700E-16 ) ) ;
#57 = ADVANCED_FACE ( 'NONE', ( #67, #53 ), #148, .T. ) ;
#58 = MANIFOLD_SOLID_BREP ( 'Corps-Déplacer/Copier1[2]', #63 ) ;
#59 = PERSON_AND_ORGANIZATION ( #229, #105 ) ;
#60 = SECURITY_CLASSIFICATION_LEVEL ( 'unclassified' ) ;
#61 = ORIENTED_EDGE ( 'NONE', *, *, #207, .F. ) ;
#62 = PRODUCT_RELATED_PRODUCT_CATEGORY ( 'detail', '', ( #153 ) ) ;
#63 = CLOSED_SHELL ( 'NONE', ( #188, #57, #201, #228 ) ) ;
#64 = ORIENTED_EDGE ( 'NONE', *, *, #242, .T. ) ;
#65 = EDGE_LOOP ( 'NONE', ( #97 ) ) ;
#66 = AXIS2_PLACEMENT_3D ( 'NONE', #54, #222, #72 ) ;
#67 = FACE_OUTER_BOUND ( 'NONE', #175, .T. ) ;
#68 = PLANE ( 'NONE',  #66 ) ;
#69 = DIRECTION ( 'NONE',  ( 0.0000000000000000000, 1.000000000000000000, 0.0000000000000000000 ) ) ;
#70 = AXIS2_PLACEMENT_3D ( 'NONE', #71, #206, #109 ) ;
#71 = CARTESIAN_POINT ( 'NONE',  ( 4.085033166446466404E-13, -1.432836755002403758E-14, 117.0000000000000000 ) ) ;
#72 = DIRECTION ( 'NONE',  ( 2.224856343362542064E-30, -1.000000000000000000, 6.372241829308259950E-16 ) ) ;
#73 = CARTESIAN_POINT ( 'NONE',  ( 6.886566102748345277E-14, 2.999999999999985789, 19.72390923627315829 ) ) ;
#74 = AXIS2_PLACEMENT_3D ( 'NONE', #144, #203, #182 ) ;
#75 =( LENGTH_UNIT ( ) NAMED_UNIT ( * ) SI_UNIT ( .MILLI., .METRE. ) );
#76 = APPROVAL_PERSON_ORGANIZATION ( #196, #117, #218 ) ;
#77 = VERTEX_POINT ( 'NONE', #114 ) ;
#78 = CARTESIAN_POINT ( 'NONE',  ( 4.085033166446466404E-13, 2.399999999999997691, 117.0000000000000000 ) ) ;
#79 = CC_DESIGN_PERSON_AND_ORGANIZATION_ASSIGNMENT ( #118, #96, ( #233 ) ) ;
#80 = AXIS2_PLACEMENT_3D ( 'NONE', #35, #102, #32 ) ;
#81 = ORIENTED_EDGE ( 'NONE', *, *, #155, .T. ) ;
#82 = ORIENTED_EDGE ( 'NONE', *, *, #235, .F. ) ;
#83 = LOCAL_TIME ( 9, 10, 38.00000000000000000, #195 ) ;
#84 = PERSON_AND_ORGANIZATION ( #229, #105 ) ;
#85 = DIRECTION ( 'NONE',  ( -2.229619496496202136E-30, 1.000000000000000000, -6.275820958498930532E-16 ) ) ;
#86 = DIRECTION ( 'NONE',  ( -3.491481338843133355E-15, 1.224646799147353454E-16, -1.000000000000000000 ) ) ;
#87 = CARTESIAN_POINT ( 'NONE',  ( 5.671034065164784752E-14, -1.989130985320063609E-15, 16.24248711305964932 ) ) ;
#88 = CARTESIAN_POINT ( 'NONE',  ( 5.671034065164784752E-14, -1.989130985320063609E-15, 16.24248711305964932 ) ) ;
#89 = DIRECTION ( 'NONE',  ( 0.0000000000000000000, 1.000000000000000000, 0.0000000000000000000 ) ) ;
#90 = CARTESIAN_POINT ( 'NONE',  ( 1.012572241059539525E-29, 1.848027975373319707E-30, 2.900122162460261017E-15 ) ) ;
#91 = PERSON_AND_ORGANIZATION_ROLE ( 'creator' ) ;
#92 = MECHANICAL_CONTEXT ( 'NONE', #232, 'mechanical' ) ;
#93 = CIRCLE ( 'NONE', #9, 4.721324865405185811 ) ;
#94 = VERTEX_POINT ( 'NONE', #4 ) ;
#95 = DIRECTION ( 'NONE',  ( -3.491481338843133355E-15, -6.372241829308259950E-16, -1.000000000000000000 ) ) ;
#96 = PERSON_AND_ORGANIZATION_ROLE ( 'creator' ) ;
#97 = ORIENTED_EDGE ( 'NONE', *, *, #145, .F. ) ;
#98 = ADVANCED_FACE ( 'NONE', ( #225, #241 ), #185, .T. ) ;
#99 = CALENDAR_DATE ( 2021, 26, 11 ) ;
#100 = DATE_TIME_ROLE ( 'creation_date' ) ;
#101 = EDGE_LOOP ( 'NONE', ( #61 ) ) ;
#102 = DIRECTION ( 'NONE',  ( -3.491481338843133355E-15, 1.224646799147353454E-16, -1.000000000000000000 ) ) ;
#103 = DIRECTION ( 'NONE',  ( 4.275831445896959482E-31, 1.000000000000000000, 1.224646799147353454E-16 ) ) ;
#104 = CIRCLE ( 'NONE', #173, 3.000000000000011990 ) ;
#105 = ORGANIZATION ( 'UNSPECIFIED', 'UNSPECIFIED', '' ) ;
#106 = CC_DESIGN_DATE_AND_TIME_ASSIGNMENT ( #49, #100, ( #183 ) ) ;
#107 = DIRECTION ( 'NONE',  ( -3.491481338843133355E-15, 1.224646799147353454E-16, -1.000000000000000000 ) ) ;
#108 = CARTESIAN_POINT ( 'NONE',  ( 1.012572241059539525E-29, 1.848027975373319707E-30, 2.900122162460261017E-15 ) ) ;
#109 = DIRECTION ( 'NONE',  ( 0.0000000000000000000, 1.000000000000000000, 0.0000000000000000000 ) ) ;
#110 = AXIS2_PLACEMENT_3D ( 'NONE', #129, #115, #171 ) ;
#111 = PERSON_AND_ORGANIZATION_ROLE ( 'design_owner' ) ;
#112 = CARTESIAN_POINT ( 'NONE',  ( -5.441408370574329851E-30, 4.721324865405185811, -1.558481298478680952E-15 ) ) ;
#113 = APPLICATION_PROTOCOL_DEFINITION ( 'international standard', 'config_control_design', 1994, #192 ) ;
#114 = CARTESIAN_POINT ( 'NONE',  ( 1.745740669421566283E-15, 5.009999999999998010, 0.5000000000000000000 ) ) ;
#115 = DIRECTION ( 'NONE',  ( 0.0000000000000000000, 0.0000000000000000000, 1.000000000000000000 ) ) ;
#116 = DATE_AND_TIME ( #30, #83 ) ;
#117 = APPROVAL ( #174, 'UNSPECIFIED' ) ;
#118 = PERSON_AND_ORGANIZATION ( #229, #105 ) ;
#119 = CONICAL_SURFACE ( 'NONE', #16, 4.721324865405185811, 0.5235987755982977054 ) ;
#120 = PERSON_AND_ORGANIZATION ( #229, #105 ) ;
#121 = EDGE_LOOP ( 'NONE', ( #177 ) ) ;
#122 = COORDINATED_UNIVERSAL_TIME_OFFSET ( 1, 0, .AHEAD. ) ;
#123 = EDGE_LOOP ( 'NONE', ( #219 ) ) ;
#124 = UNCERTAINTY_MEASURE_WITH_UNIT (LENGTH_MEASURE( 1.000000000000000082E-05 ), #75, 'distance_accuracy_value', 'NONE');
#125 = FACE_OUTER_BOUND ( 'NONE', #197, .T. ) ;
#126 = DIRECTION ( 'NONE',  ( -2.224856343362542064E-30, 1.000000000000000000, -6.372241829308259950E-16 ) ) ;
#127 = FACE_OUTER_BOUND ( 'NONE', #13, .T. ) ;
#128 = EDGE_LOOP ( 'NONE', ( #82 ) ) ;
#129 = CARTESIAN_POINT ( 'NONE',  ( 0.0000000000000000000, 0.0000000000000000000, 0.0000000000000000000 ) ) ;
#130 = ADVANCED_FACE ( 'NONE', ( #181, #52 ), #168, .T. ) ;
#131 = APPROVAL_DATE_TIME ( #187, #211 ) ;
#132 = CC_DESIGN_PERSON_AND_ORGANIZATION_ASSIGNMENT ( #120, #161, ( #233 ) ) ;
#133 = CARTESIAN_POINT ( 'NONE',  ( 6.886566102748345277E-14, -2.415482231287484450E-15, 19.72390923627315829 ) ) ;
#134 = PRODUCT_DEFINITION_SHAPE ( 'NONE', 'NONE',  #183 ) ;
#135 = CLOSED_SHELL ( 'NONE', ( #48, #98, #130, #15, #215 ) ) ;
#136 = APPROVAL_STATUS ( 'not_yet_approved' ) ;
#137 = DATE_AND_TIME ( #194, #51 ) ;
#138 = ADVANCED_BREP_SHAPE_REPRESENTATION ( '341850', ( #216, #58, #110 ), #43 ) ;
#139 = APPROVAL_DATE_TIME ( #116, #3 ) ;
#140 = AXIS2_PLACEMENT_3D ( 'NONE', #151, #20, #243 ) ;
#141 = LOCAL_TIME ( 9, 10, 38.00000000000000000, #122 ) ;
#142 = EDGE_LOOP ( 'NONE', ( #81 ) ) ;
#143 = APPROVAL_PERSON_ORGANIZATION ( #59, #211, #190 ) ;
#144 = CARTESIAN_POINT ( 'NONE',  ( 5.671034065164786014E-14, 1.035010557938390720E-14, 16.24248711305965287 ) ) ;
#145 = EDGE_CURVE ( 'NONE', #77, #77, #8, .T. ) ;
#146 = DESIGN_CONTEXT ( 'detailed design', #192, 'design' ) ;
#147 = EDGE_LOOP ( 'NONE', ( #31 ) ) ;
#148 = CYLINDRICAL_SURFACE ( 'NONE', #19, 5.009999999999992681 ) ;
#149 = PLANE ( 'NONE',  #140 ) ;
#150 = CC_DESIGN_PERSON_AND_ORGANIZATION_ASSIGNMENT ( #189, #91, ( #183 ) ) ;
#151 = CARTESIAN_POINT ( 'NONE',  ( 4.085033166446466404E-13, -1.432836755002403442E-14, 117.0000000000000000 ) ) ;
#152 = CARTESIAN_POINT ( 'NONE',  ( -3.785471652766322713E-31, 4.721324865405185811, -1.084202172485504434E-16 ) ) ;
#153 = PRODUCT ( '341850', '341850', '', ( #92 ) ) ;
#154 = LOCAL_TIME ( 9, 10, 38.00000000000000000, #212 ) ;
#155 = EDGE_CURVE ( 'NONE', #159, #159, #34, .T. ) ;
#156 = DIRECTION ( 'NONE',  ( -3.491481338843133355E-15, 1.224646799147353454E-16, -1.000000000000000000 ) ) ;
#157 = AXIS2_PLACEMENT_3D ( 'NONE', #87, #86, #89 ) ;
#158 = LOCAL_TIME ( 9, 10, 38.00000000000000000, #170 ) ;
#159 = VERTEX_POINT ( 'NONE', #231 ) ;
#160 = SECURITY_CLASSIFICATION ( '', '', #60 ) ;
#161 = PERSON_AND_ORGANIZATION_ROLE ( 'design_supplier' ) ;
#162 = ORIENTED_EDGE ( 'NONE', *, *, #145, .T. ) ;
#163 = DIRECTION ( 'NONE',  ( -3.491481338843133355E-15, 1.224646799147353454E-16, -1.000000000000000000 ) ) ;
#164 = FACE_OUTER_BOUND ( 'NONE', #236, .T. ) ;
#165 = FACE_OUTER_BOUND ( 'NONE', #101, .T. ) ;
#166 = DIRECTION ( 'NONE',  ( 3.491481338843133355E-15, 6.372241829308259950E-16, 1.000000000000000000 ) ) ;
#167 = APPROVAL_PERSON_ORGANIZATION ( #45, #3, #176 ) ;
#168 = CYLINDRICAL_SURFACE ( 'NONE', #239, 3.000000000000000000 ) ;
#169 = CC_DESIGN_PERSON_AND_ORGANIZATION_ASSIGNMENT ( #84, #213, ( #160 ) ) ;
#170 = COORDINATED_UNIVERSAL_TIME_OFFSET ( 1, 0, .AHEAD. ) ;
#171 = DIRECTION ( 'NONE',  ( 1.000000000000000000, 0.0000000000000000000, 0.0000000000000000000 ) ) ;
#172 = DIRECTION ( 'NONE',  ( -3.491481338843133355E-15, -6.372241829308259950E-16, -1.000000000000000000 ) ) ;
#173 = AXIS2_PLACEMENT_3D ( 'NONE', #221, #107, #69 ) ;
#174 = APPROVAL_STATUS ( 'not_yet_approved' ) ;
#175 = EDGE_LOOP ( 'NONE', ( #205 ) ) ;
#176 = APPROVAL_ROLE ( '' ) ;
#177 = ORIENTED_EDGE ( 'NONE', *, *, #235, .T. ) ;
#178 = DIRECTION ( 'NONE',  ( -3.491481338843133355E-15, -6.372241829308259950E-16, -1.000000000000000000 ) ) ;
#179 = CARTESIAN_POINT ( 'NONE',  ( 1.745740669421577524E-15, 3.186120914654150190E-16, 0.5000000000000031086 ) ) ;
#180 = CC_DESIGN_APPROVAL ( #211, ( #183 ) ) ;
#181 = FACE_OUTER_BOUND ( 'NONE', #27, .T. ) ;
#182 = DIRECTION ( 'NONE',  ( -2.460269789237193758E-30, 1.000000000000000000, -6.925043816274696588E-16 ) ) ;
#183 = PRODUCT_DEFINITION ( 'UNKNOWN', '', #233, #146 ) ;
#184 = ORIENTED_EDGE ( 'NONE', *, *, #242, .F. ) ;
#185 = CONICAL_SURFACE ( 'NONE', #80, 3.000000000000011990, 0.7853981633974453924 ) ;
#186 = CC_DESIGN_APPROVAL ( #3, ( #160 ) ) ;
#187 = DATE_AND_TIME ( #44, #154 ) ;
#188 = ADVANCED_FACE ( 'NONE', ( #55 ), #68, .T. ) ;
#189 = PERSON_AND_ORGANIZATION ( #229, #105 ) ;
#190 = APPROVAL_ROLE ( '' ) ;
#191 = CONICAL_SURFACE ( 'NONE', #157, 5.009999999999999787, 0.5235987755982930425 ) ;
#192 = APPLICATION_CONTEXT ( 'configuration controlled 3d designs of mechanical parts and assemblies' ) ;
#193 = VERTEX_POINT ( 'NONE', #25 ) ;
#194 = CALENDAR_DATE ( 2021, 26, 11 ) ;
#195 = COORDINATED_UNIVERSAL_TIME_OFFSET ( 1, 0, .AHEAD. ) ;
#196 = PERSON_AND_ORGANIZATION ( #229, #105 ) ;
#197 = EDGE_LOOP ( 'NONE', ( #237 ) ) ;
#198 = CALENDAR_DATE ( 2021, 26, 11 ) ;
#199 = AXIS2_PLACEMENT_3D ( 'NONE', #133, #156, #21 ) ;
#200 = PLANE ( 'NONE',  #204 ) ;
#201 = ADVANCED_FACE ( 'NONE', ( #127, #36 ), #119, .T. ) ;
#202 = DIRECTION ( 'NONE',  ( 0.0000000000000000000, 1.000000000000000000, 0.0000000000000000000 ) ) ;
#203 = DIRECTION ( 'NONE',  ( -3.491481338843133355E-15, -6.372241829308259950E-16, -1.000000000000000000 ) ) ;
#204 = AXIS2_PLACEMENT_3D ( 'NONE', #17, #163, #103 ) ;
#205 = ORIENTED_EDGE ( 'NONE', *, *, #6, .T. ) ;
#206 = DIRECTION ( 'NONE',  ( -3.491481338843133355E-15, 1.224646799147353454E-16, -1.000000000000000000 ) ) ;
#207 = EDGE_CURVE ( 'NONE', #230, #230, #42, .T. ) ;
#208 = AXIS2_PLACEMENT_3D ( 'NONE', #112, #95, #209 ) ;
#209 = DIRECTION ( 'NONE',  ( -2.224856343362542064E-30, 1.000000000000000000, -6.372241829308259950E-16 ) ) ;
#210 = CIRCLE ( 'NONE', #199, 2.999999999999988454 ) ;
#211 = APPROVAL ( #136, 'UNSPECIFIED' ) ;
#212 = COORDINATED_UNIVERSAL_TIME_OFFSET ( 1, 0, .AHEAD. ) ;
#213 = PERSON_AND_ORGANIZATION_ROLE ( 'classification_officer' ) ;
#214 = COORDINATED_UNIVERSAL_TIME_OFFSET ( 1, 0, .AHEAD. ) ;
#215 = ADVANCED_FACE ( 'NONE', ( #33 ), #200, .T. ) ;
#216 = MANIFOLD_SOLID_BREP ( 'Corps-Déplacer/Copier1[1]', #135 ) ;
#217 = CC_DESIGN_APPROVAL ( #117, ( #233 ) ) ;
#218 = APPROVAL_ROLE ( '' ) ;
#219 = ORIENTED_EDGE ( 'NONE', *, *, #207, .T. ) ;
#220 = EDGE_LOOP ( 'NONE', ( #238 ) ) ;
#221 = CARTESIAN_POINT ( 'NONE',  ( 4.064084278413407478E-13, -1.425488874207519270E-14, 116.4000000000000057 ) ) ;
#222 = DIRECTION ( 'NONE',  ( 3.491481338843133355E-15, 6.372241829308259950E-16, 1.000000000000000000 ) ) ;
#223 = CARTESIAN_POINT ( 'NONE',  ( 0.0000000000000000000, 0.0000000000000000000, 0.0000000000000000000 ) ) ;
#224 = AXIS2_PLACEMENT_3D ( 'NONE', #179, #1, #85 ) ;
#225 = FACE_BOUND ( 'NONE', #123, .T. ) ;
#226 = DIRECTION ( 'NONE',  ( 2.224856343362541714E-30, -1.000000000000000000, 6.372241829308259950E-16 ) ) ;
#227 =( NAMED_UNIT ( * ) PLANE_ANGLE_UNIT ( ) SI_UNIT ( $, .RADIAN. ) );
#228 = ADVANCED_FACE ( 'NONE', ( #164 ), #7, .T. ) ;
#229 = PERSON ( 'UNSPECIFIED', 'UNSPECIFIED', 'UNSPECIFIED', ('UNSPECIFIED'), ('UNSPECIFIED'), ('UNSPECIFIED') ) ;
#230 = VERTEX_POINT ( 'NONE', #78 ) ;
#231 = CARTESIAN_POINT ( 'NONE',  ( 5.671034065164784752E-14, 5.009999999999998010, 16.24248711305964932 ) ) ;
#232 = APPLICATION_CONTEXT ( 'configuration controlled 3d designs of mechanical parts and assemblies' ) ;
#233 = PRODUCT_DEFINITION_FORMATION_WITH_SPECIFIED_SOURCE ( 'ANY', '', #153, .NOT_KNOWN. ) ;
#234 = VERTEX_POINT ( 'NONE', #73 ) ;
#235 = EDGE_CURVE ( 'NONE', #234, #234, #210, .T. ) ;
#236 = EDGE_LOOP ( 'NONE', ( #64 ) ) ;
#237 = ORIENTED_EDGE ( 'NONE', *, *, #155, .F. ) ;
#238 = ORIENTED_EDGE ( 'NONE', *, *, #6, .F. ) ;
#239 = AXIS2_PLACEMENT_3D ( 'NONE', #18, #14, #56 ) ;
#240 = DIRECTION ( 'NONE',  ( -3.491481338843133355E-15, 1.224646799147353454E-16, -1.000000000000000000 ) ) ;
#241 = FACE_OUTER_BOUND ( 'NONE', #147, .T. ) ;
#242 = EDGE_CURVE ( 'NONE', #24, #24, #93, .T. ) ;
#243 = DIRECTION ( 'NONE',  ( -4.275831445896959482E-31, -1.000000000000000000, -1.224646799147353454E-16 ) ) ;
ENDSEC;
END-ISO-10303-21;
