ISO-10303-21;
HEADER;
FILE_DESCRIPTION (( 'STEP AP203' ),
    '1' );
FILE_NAME ('341849.step',
    '2021-11-26T06:53:00',
    ( '' ),
    ( '' ),
    'SwSTEP 2.0',
    'SolidWorks 2019',
    '' );
FILE_SCHEMA (( 'CONFIG_CONTROL_DESIGN' ));
ENDSEC;

DATA;
#1 = DIRECTION ( 'NONE',  ( -3.491481338843133355E-15, 1.030643345817079849E-16, -1.000000000000000000 ) ) ;
#2 = DIRECTION ( 'NONE',  ( -3.491481338843133355E-15, 1.030643345817079849E-16, -1.000000000000000000 ) ) ;
#3 = EDGE_LOOP ( 'NONE', ( #153 ) ) ;
#4 = FACE_OUTER_BOUND ( 'NONE', #20, .T. ) ;
#5 = PERSON_AND_ORGANIZATION_ROLE ( 'creator' ) ;
#6 = CC_DESIGN_DATE_AND_TIME_ASSIGNMENT ( #102, #178, ( #214 ) ) ;
#7 = CARTESIAN_POINT ( 'NONE',  ( 5.677081488237337867E-14, 3.999999999999998224, 16.25980762113533373 ) ) ;
#8 =( NAMED_UNIT ( * ) PLANE_ANGLE_UNIT ( ) SI_UNIT ( $, .RADIAN. ) );
#9 = CALENDAR_DATE ( 2021, 26, 11 ) ;
#10 = ORIENTED_EDGE ( 'NONE', *, *, #37, .T. ) ;
#11 = ADVANCED_FACE ( 'NONE', ( #4 ), #225, .T. ) ;
#12 = PERSON_AND_ORGANIZATION_ROLE ( 'classification_officer' ) ;
#13 = SECURITY_CLASSIFICATION_LEVEL ( 'unclassified' ) ;
#14 = AXIS2_PLACEMENT_3D ( 'NONE', #16, #171, #149 ) ;
#15 = EDGE_LOOP ( 'NONE', ( #34 ) ) ;
#16 = CARTESIAN_POINT ( 'NONE',  ( 1.396592535537260639E-15, 2.063106426644844766E-16, 0.4000000000000020761 ) ) ;
#17 = SECURITY_CLASSIFICATION ( '', '', #13 ) ;
#18 = CYLINDRICAL_SURFACE ( 'NONE', #145, 2.999999999999993339 ) ;
#19 = CC_DESIGN_PERSON_AND_ORGANIZATION_ASSIGNMENT ( #163, #12, ( #17 ) ) ;
#20 = EDGE_LOOP ( 'NONE', ( #199 ) ) ;
#21 = DIRECTION ( 'NONE',  ( -3.491481338843133355E-15, 1.030643345817079849E-16, -1.000000000000000000 ) ) ;
#22 = CONICAL_SURFACE ( 'NONE', #174, 2.999999999999996003, 0.7853981633974453924 ) ;
#23 = PLANE ( 'NONE',  #237 ) ;
#24 = CARTESIAN_POINT ( 'NONE',  ( 6.281823795492844412E-14, 2.999999999999988010, 17.99185842870425489 ) ) ;
#25 = VERTEX_POINT ( 'NONE', #210 ) ;
#26 = CIRCLE ( 'NONE', #95, 4.000000000000000000 ) ;
#27 = DIRECTION ( 'NONE',  ( -1.800824397169444659E-30, 1.000000000000000000, -5.157766066612085292E-16 ) ) ;
#28 = CC_DESIGN_DATE_AND_TIME_ASSIGNMENT ( #176, #177, ( #17 ) ) ;
#29 = EDGE_LOOP ( 'NONE', ( #121 ) ) ;
#30 =( LENGTH_UNIT ( ) NAMED_UNIT ( * ) SI_UNIT ( .MILLI., .METRE. ) );
#31 = PERSON_AND_ORGANIZATION_ROLE ( 'design_owner' ) ;
#32 = LOCAL_TIME ( 7, 53, 0.0000000000000000000, #80 ) ;
#33 = AXIS2_PLACEMENT_3D ( 'NONE', #242, #58, #203 ) ;
#34 = ORIENTED_EDGE ( 'NONE', *, *, #65, .F. ) ;
#35 = PRODUCT_DEFINITION_SHAPE ( 'NONE', 'NONE',  #214 ) ;
#36 = CARTESIAN_POINT ( 'NONE',  ( 3.505447264198505636E-13, -1.034765919200348261E-14, 100.4000000000000057 ) ) ;
#37 = EDGE_CURVE ( 'NONE', #173, #173, #82, .T. ) ;
#38 = DIRECTION ( 'NONE',  ( 3.598472008923184252E-31, 1.000000000000000000, 1.030643345817079726E-16 ) ) ;
#39 = AXIS2_PLACEMENT_3D ( 'NONE', #92, #74, #78 ) ;
#40 = DIRECTION ( 'NONE',  ( 0.0000000000000000000, 1.000000000000000000, 0.0000000000000000000 ) ) ;
#41 = ORIENTED_EDGE ( 'NONE', *, *, #197, .F. ) ;
#42 = ADVANCED_FACE ( 'NONE', ( #91, #206 ), #233, .T. ) ;
#43 = FACE_OUTER_BOUND ( 'NONE', #3, .T. ) ;
#44 = CARTESIAN_POINT ( 'NONE',  ( -3.393707504245083518E-30, 3.769059892324148731, -9.719964607829046738E-16 ) ) ;
#45 = APPLICATION_PROTOCOL_DEFINITION ( 'international standard', 'config_control_design', 1994, #185 ) ;
#46 = FACE_OUTER_BOUND ( 'NONE', #47, .T. ) ;
#47 = EDGE_LOOP ( 'NONE', ( #196 ) ) ;
#48 = CARTESIAN_POINT ( 'NONE',  ( 0.0000000000000000000, 3.769059892324148731, 0.0000000000000000000 ) ) ;
#49 = CARTESIAN_POINT ( 'NONE',  ( 0.0000000000000000000, 0.0000000000000000000, 0.0000000000000000000 ) ) ;
#50 = CC_DESIGN_PERSON_AND_ORGANIZATION_ASSIGNMENT ( #172, #5, ( #214 ) ) ;
#51 = DATE_AND_TIME ( #124, #136 ) ;
#52 = PERSON_AND_ORGANIZATION ( #235, #170 ) ;
#53 = APPROVAL_DATE_TIME ( #51, #184 ) ;
#54 = UNCERTAINTY_MEASURE_WITH_UNIT (LENGTH_MEASURE( 1.000000000000000082E-05 ), #30, 'distance_accuracy_value', 'NONE');
#55 = APPROVAL ( #71, 'UNSPECIFIED' ) ;
#56 = AXIS2_PLACEMENT_3D ( 'NONE', #49, #114, #158 ) ;
#57 = APPROVAL_PERSON_ORGANIZATION ( #52, #184, #122 ) ;
#58 = DIRECTION ( 'NONE',  ( -3.491481338843133355E-15, -5.157766066612085292E-16, -1.000000000000000000 ) ) ;
#59 = CARTESIAN_POINT ( 'NONE',  ( 0.0000000000000000000, 0.0000000000000000000, 0.0000000000000000000 ) ) ;
#60 = DIRECTION ( 'NONE',  ( 0.0000000000000000000, 1.000000000000000000, 0.0000000000000000000 ) ) ;
#61 = CARTESIAN_POINT ( 'NONE',  ( 5.677081488237339129E-14, 3.999999999999998224, 16.25980762113533729 ) ) ;
#62 = DIRECTION ( 'NONE',  ( 0.0000000000000000000, 1.000000000000000000, 0.0000000000000000000 ) ) ;
#63 = CARTESIAN_POINT ( 'NONE',  ( 1.396592535537253539E-15, 3.999999999999998224, 0.4000000000000000222 ) ) ;
#64 = PRODUCT_DEFINITION_FORMATION_WITH_SPECIFIED_SOURCE ( 'ANY', '', #107, .NOT_KNOWN. ) ;
#65 = EDGE_CURVE ( 'NONE', #137, #137, #193, .T. ) ;
#66 = PLANE ( 'NONE',  #126 ) ;
#67 = EDGE_LOOP ( 'NONE', ( #110 ) ) ;
#68 = CLOSED_SHELL ( 'NONE', ( #224, #112, #72, #151, #11 ) ) ;
#69 = DIRECTION ( 'NONE',  ( -3.491481338843133355E-15, -5.157766066612085292E-16, -1.000000000000000000 ) ) ;
#70 = DATE_AND_TIME ( #161, #228 ) ;
#71 = APPROVAL_STATUS ( 'not_yet_approved' ) ;
#72 = ADVANCED_FACE ( 'NONE', ( #128, #94 ), #18, .T. ) ;
#73 = COORDINATED_UNIVERSAL_TIME_OFFSET ( 1, 0, .AHEAD. ) ;
#74 = DIRECTION ( 'NONE',  ( 3.491481338843133355E-15, 5.157766066612085292E-16, 1.000000000000000000 ) ) ;
#75 = AXIS2_PLACEMENT_3D ( 'NONE', #93, #183, #79 ) ;
#76 = FACE_OUTER_BOUND ( 'NONE', #166, .T. ) ;
#77 = CARTESIAN_POINT ( 'NONE',  ( 5.677081488237337867E-14, -1.675806252898897568E-15, 16.25980762113533373 ) ) ;
#78 = DIRECTION ( 'NONE',  ( 1.800824397169444659E-30, -1.000000000000000000, 5.157766066612085292E-16 ) ) ;
#79 = DIRECTION ( 'NONE',  ( -1.800824397169444309E-30, 1.000000000000000000, -5.157766066612085292E-16 ) ) ;
#80 = COORDINATED_UNIVERSAL_TIME_OFFSET ( 1, 0, .AHEAD. ) ;
#81 = EDGE_CURVE ( 'NONE', #198, #198, #201, .T. ) ;
#82 = CIRCLE ( 'NONE', #175, 2.399999999999996358 ) ;
#83 = APPLICATION_PROTOCOL_DEFINITION ( 'international standard', 'config_control_design', 1994, #154 ) ;
#84 = EDGE_CURVE ( 'NONE', #25, #25, #26, .T. ) ;
#85 = PLANE ( 'NONE',  #115 ) ;
#86 = APPROVAL_DATE_TIME ( #70, #55 ) ;
#87 = PERSON_AND_ORGANIZATION_ROLE ( 'design_supplier' ) ;
#88 = AXIS2_PLACEMENT_3D ( 'NONE', #77, #111, #152 ) ;
#89 = ADVANCED_BREP_SHAPE_REPRESENTATION ( '341849', ( #187, #180, #56 ), #160 ) ;
#90 = APPROVAL_PERSON_ORGANIZATION ( #236, #55, #104 ) ;
#91 = FACE_OUTER_BOUND ( 'NONE', #119, .T. ) ;
#92 = CARTESIAN_POINT ( 'NONE',  ( 6.787415008490167037E-30, 1.002666072458622150E-30, 1.943992921565809348E-15 ) ) ;
#93 = CARTESIAN_POINT ( 'NONE',  ( 0.0000000000000000000, 0.0000000000000000000, 0.0000000000000000000 ) ) ;
#94 = FACE_OUTER_BOUND ( 'NONE', #15, .T. ) ;
#95 = AXIS2_PLACEMENT_3D ( 'NONE', #155, #168, #109 ) ;
#96 = DIRECTION ( 'NONE',  ( 3.491481338843133355E-15, 5.157766066612085292E-16, 1.000000000000000000 ) ) ;
#97 = CARTESIAN_POINT ( 'NONE',  ( 3.505447264198505636E-13, 2.999999999999985789, 100.4000000000000057 ) ) ;
#98 = VERTEX_POINT ( 'NONE', #7 ) ;
#99 = COORDINATED_UNIVERSAL_TIME_OFFSET ( 1, 0, .AHEAD. ) ;
#100 = SHAPE_DEFINITION_REPRESENTATION ( #35, #89 ) ;
#101 = ADVANCED_FACE ( 'NONE', ( #208, #221 ), #167, .T. ) ;
#102 = DATE_AND_TIME ( #218, #32 ) ;
#103 = AXIS2_PLACEMENT_3D ( 'NONE', #138, #69, #157 ) ;
#104 = APPROVAL_ROLE ( '' ) ;
#105 = ORIENTED_EDGE ( 'NONE', *, *, #65, .T. ) ;
#106 = DIRECTION ( 'NONE',  ( -3.491481338843133355E-15, 1.030643345817079849E-16, -1.000000000000000000 ) ) ;
#107 = PRODUCT ( '341849', '341849', '', ( #231 ) ) ;
#108 = EDGE_LOOP ( 'NONE', ( #10 ) ) ;
#109 = DIRECTION ( 'NONE',  ( 0.0000000000000000000, 1.000000000000000000, 0.0000000000000000000 ) ) ;
#110 = ORIENTED_EDGE ( 'NONE', *, *, #37, .F. ) ;
#111 = DIRECTION ( 'NONE',  ( -3.491481338843133355E-15, 1.030643345817079849E-16, -1.000000000000000000 ) ) ;
#112 = ADVANCED_FACE ( 'NONE', ( #226, #76 ), #22, .T. ) ;
#113 = FACE_OUTER_BOUND ( 'NONE', #67, .T. ) ;
#114 = DIRECTION ( 'NONE',  ( 0.0000000000000000000, 0.0000000000000000000, 1.000000000000000000 ) ) ;
#115 = AXIS2_PLACEMENT_3D ( 'NONE', #44, #118, #27 ) ;
#116 = EDGE_LOOP ( 'NONE', ( #141 ) ) ;
#117 = CC_DESIGN_SECURITY_CLASSIFICATION ( #17, ( #64 ) ) ;
#118 = DIRECTION ( 'NONE',  ( -3.491481338843133355E-15, -5.157766066612085292E-16, -1.000000000000000000 ) ) ;
#119 = EDGE_LOOP ( 'NONE', ( #219 ) ) ;
#120 = APPROVAL_DATE_TIME ( #159, #133 ) ;
#121 = ORIENTED_EDGE ( 'NONE', *, *, #192, .F. ) ;
#122 = APPROVAL_ROLE ( '' ) ;
#123 = CC_DESIGN_APPROVAL ( #55, ( #64 ) ) ;
#124 = CALENDAR_DATE ( 2021, 26, 11 ) ;
#125 = EDGE_LOOP ( 'NONE', ( #148 ) ) ;
#126 = AXIS2_PLACEMENT_3D ( 'NONE', #227, #134, #232 ) ;
#127 = DIRECTION ( 'NONE',  ( 1.800824397169444659E-30, -1.000000000000000000, 5.157766066612085292E-16 ) ) ;
#128 = FACE_OUTER_BOUND ( 'NONE', #116, .T. ) ;
#129 = CONICAL_SURFACE ( 'NONE', #88, 4.000000000000000000, 0.5235987755982925984 ) ;
#130 = CARTESIAN_POINT ( 'NONE',  ( 5.677081488237339129E-14, 8.386428399793241502E-15, 16.25980762113533729 ) ) ;
#131 = CC_DESIGN_APPROVAL ( #184, ( #17 ) ) ;
#132 = FACE_BOUND ( 'NONE', #240, .T. ) ;
#133 = APPROVAL ( #139, 'UNSPECIFIED' ) ;
#134 = DIRECTION ( 'NONE',  ( 3.491481338843133355E-15, -1.030643345817079849E-16, 1.000000000000000000 ) ) ;
#135 = CC_DESIGN_APPROVAL ( #133, ( #214 ) ) ;
#136 = LOCAL_TIME ( 7, 53, 0.0000000000000000000, #73 ) ;
#137 = VERTEX_POINT ( 'NONE', #24 ) ;
#138 = CARTESIAN_POINT ( 'NONE',  ( 5.677081488237339129E-14, 8.386428399793241502E-15, 16.25980762113533729 ) ) ;
#139 = APPROVAL_STATUS ( 'not_yet_approved' ) ;
#140 = CLOSED_SHELL ( 'NONE', ( #162, #101, #42, #220 ) ) ;
#141 = ORIENTED_EDGE ( 'NONE', *, *, #197, .T. ) ;
#142 = VERTEX_POINT ( 'NONE', #48 ) ;
#143 = CC_DESIGN_PERSON_AND_ORGANIZATION_ASSIGNMENT ( #200, #87, ( #64 ) ) ;
#144 = COORDINATED_UNIVERSAL_TIME_OFFSET ( 1, 0, .AHEAD. ) ;
#145 = AXIS2_PLACEMENT_3D ( 'NONE', #59, #1, #38 ) ;
#146 = APPROVAL_STATUS ( 'not_yet_approved' ) ;
#147 = PERSON_AND_ORGANIZATION ( #235, #170 ) ;
#148 = ORIENTED_EDGE ( 'NONE', *, *, #239, .F. ) ;
#149 = DIRECTION ( 'NONE',  ( -1.781485198558193865E-30, 1.000000000000000000, -5.149960319306148034E-16 ) ) ;
#150 = EDGE_LOOP ( 'NONE', ( #234 ) ) ;
#151 = ADVANCED_FACE ( 'NONE', ( #132, #43 ), #129, .T. ) ;
#152 = DIRECTION ( 'NONE',  ( 0.0000000000000000000, 1.000000000000000000, 0.0000000000000000000 ) ) ;
#153 = ORIENTED_EDGE ( 'NONE', *, *, #84, .F. ) ;
#154 = APPLICATION_CONTEXT ( 'configuration controlled 3d designs of mechanical parts and assemblies' ) ;
#155 = CARTESIAN_POINT ( 'NONE',  ( 5.677081488237337867E-14, -1.675806252898897568E-15, 16.25980762113533373 ) ) ;
#156 = CC_DESIGN_PERSON_AND_ORGANIZATION_ASSIGNMENT ( #215, #31, ( #107 ) ) ;
#157 = DIRECTION ( 'NONE',  ( -3.081487911019585072E-30, 1.000000000000000000, -8.673617379884057166E-16 ) ) ;
#158 = DIRECTION ( 'NONE',  ( 1.000000000000000000, 0.0000000000000000000, 0.0000000000000000000 ) ) ;
#159 = DATE_AND_TIME ( #9, #243 ) ;
#160 =( GEOMETRIC_REPRESENTATION_CONTEXT ( 3 ) GLOBAL_UNCERTAINTY_ASSIGNED_CONTEXT ( ( #54 ) ) GLOBAL_UNIT_ASSIGNED_CONTEXT ( ( #30, #8, #191 ) ) REPRESENTATION_CONTEXT ( 'NONE', 'WORKASPACE' ) );
#161 = CALENDAR_DATE ( 2021, 26, 11 ) ;
#162 = ADVANCED_FACE ( 'NONE', ( #189 ), #23, .T. ) ;
#163 = PERSON_AND_ORGANIZATION ( #235, #170 ) ;
#164 = CIRCLE ( 'NONE', #103, 3.999999999999989786 ) ;
#165 = PERSON_AND_ORGANIZATION_ROLE ( 'creator' ) ;
#166 = EDGE_LOOP ( 'NONE', ( #41 ) ) ;
#167 = CYLINDRICAL_SURFACE ( 'NONE', #75, 3.999999999999994227 ) ;
#168 = DIRECTION ( 'NONE',  ( -3.491481338843133355E-15, 1.030643345817079849E-16, -1.000000000000000000 ) ) ;
#169 = DIRECTION ( 'NONE',  ( 3.598472008923184252E-31, 1.000000000000000000, 1.030643345817079849E-16 ) ) ;
#170 = ORGANIZATION ( 'UNSPECIFIED', 'UNSPECIFIED', '' ) ;
#171 = DIRECTION ( 'NONE',  ( -3.491481338843133355E-15, -5.157766066612085292E-16, -1.000000000000000000 ) ) ;
#172 = PERSON_AND_ORGANIZATION ( #235, #170 ) ;
#173 = VERTEX_POINT ( 'NONE', #190 ) ;
#174 = AXIS2_PLACEMENT_3D ( 'NONE', #204, #2, #62 ) ;
#175 = AXIS2_PLACEMENT_3D ( 'NONE', #186, #182, #222 ) ;
#176 = DATE_AND_TIME ( #216, #213 ) ;
#177 = DATE_TIME_ROLE ( 'classification_date' ) ;
#178 = DATE_TIME_ROLE ( 'creation_date' ) ;
#179 = AXIS2_PLACEMENT_3D ( 'NONE', #207, #21, #60 ) ;
#180 = MANIFOLD_SOLID_BREP ( 'Corps-Déplacer/Copier1[2]', #140 ) ;
#181 = ORIENTED_EDGE ( 'NONE', *, *, #81, .F. ) ;
#182 = DIRECTION ( 'NONE',  ( -3.491481338843133355E-15, 1.030643345817079849E-16, -1.000000000000000000 ) ) ;
#183 = DIRECTION ( 'NONE',  ( -3.491481338843133355E-15, -5.157766066612085292E-16, -1.000000000000000000 ) ) ;
#184 = APPROVAL ( #146, 'UNSPECIFIED' ) ;
#185 = APPLICATION_CONTEXT ( 'configuration controlled 3d designs of mechanical parts and assemblies' ) ;
#186 = CARTESIAN_POINT ( 'NONE',  ( 3.526396152231565067E-13, -1.040949779275250653E-14, 101.0000000000000000 ) ) ;
#187 = MANIFOLD_SOLID_BREP ( 'Corps-Déplacer/Copier1[1]', #68 ) ;
#188 = APPROVAL_PERSON_ORGANIZATION ( #230, #133, #211 ) ;
#189 = FACE_OUTER_BOUND ( 'NONE', #125, .T. ) ;
#190 = CARTESIAN_POINT ( 'NONE',  ( 3.526396152231565067E-13, 2.399999999999985700, 101.0000000000000000 ) ) ;
#191 =( NAMED_UNIT ( * ) SI_UNIT ( $, .STERADIAN. ) SOLID_ANGLE_UNIT ( ) );
#192 = EDGE_CURVE ( 'NONE', #142, #142, #229, .T. ) ;
#193 = CIRCLE ( 'NONE', #179, 2.999999999999989786 ) ;
#194 = EDGE_LOOP ( 'NONE', ( #181 ) ) ;
#195 = VERTEX_POINT ( 'NONE', #97 ) ;
#196 = ORIENTED_EDGE ( 'NONE', *, *, #192, .T. ) ;
#197 = EDGE_CURVE ( 'NONE', #195, #195, #209, .T. ) ;
#198 = VERTEX_POINT ( 'NONE', #63 ) ;
#199 = ORIENTED_EDGE ( 'NONE', *, *, #84, .T. ) ;
#200 = PERSON_AND_ORGANIZATION ( #235, #170 ) ;
#201 = CIRCLE ( 'NONE', #14, 3.999999999999998224 ) ;
#202 = CC_DESIGN_PERSON_AND_ORGANIZATION_ASSIGNMENT ( #147, #165, ( #64 ) ) ;
#203 = DIRECTION ( 'NONE',  ( -1.800824397169444659E-30, 1.000000000000000000, -5.157766066612085292E-16 ) ) ;
#204 = CARTESIAN_POINT ( 'NONE',  ( 3.505447264198505636E-13, -1.034765919200348261E-14, 100.4000000000000057 ) ) ;
#205 = AXIS2_PLACEMENT_3D ( 'NONE', #61, #223, #169 ) ;
#206 = FACE_BOUND ( 'NONE', #29, .T. ) ;
#207 = CARTESIAN_POINT ( 'NONE',  ( 6.281823795492844412E-14, -1.854318916842698141E-15, 17.99185842870425489 ) ) ;
#208 = FACE_OUTER_BOUND ( 'NONE', #150, .T. ) ;
#209 = CIRCLE ( 'NONE', #212, 2.999999999999996003 ) ;
#210 = CARTESIAN_POINT ( 'NONE',  ( 5.677081488237337867E-14, 3.999999999999998224, 16.25980762113533373 ) ) ;
#211 = APPROVAL_ROLE ( '' ) ;
#212 = AXIS2_PLACEMENT_3D ( 'NONE', #36, #106, #40 ) ;
#213 = LOCAL_TIME ( 7, 53, 0.0000000000000000000, #238 ) ;
#214 = PRODUCT_DEFINITION ( 'UNKNOWN', '', #64, #241 ) ;
#215 = PERSON_AND_ORGANIZATION ( #235, #170 ) ;
#216 = CALENDAR_DATE ( 2021, 26, 11 ) ;
#217 = PRODUCT_RELATED_PRODUCT_CATEGORY ( 'detail', '', ( #107 ) ) ;
#218 = CALENDAR_DATE ( 2021, 26, 11 ) ;
#219 = ORIENTED_EDGE ( 'NONE', *, *, #81, .T. ) ;
#220 = ADVANCED_FACE ( 'NONE', ( #46 ), #85, .T. ) ;
#221 = FACE_OUTER_BOUND ( 'NONE', #194, .T. ) ;
#222 = DIRECTION ( 'NONE',  ( 0.0000000000000000000, 1.000000000000000000, 0.0000000000000000000 ) ) ;
#223 = DIRECTION ( 'NONE',  ( -3.491481338843133355E-15, 1.030643345817079849E-16, -1.000000000000000000 ) ) ;
#224 = ADVANCED_FACE ( 'NONE', ( #113 ), #66, .T. ) ;
#225 = PLANE ( 'NONE',  #205 ) ;
#226 = FACE_BOUND ( 'NONE', #108, .T. ) ;
#227 = CARTESIAN_POINT ( 'NONE',  ( 3.526396152231565067E-13, -1.040949779275250653E-14, 101.0000000000000000 ) ) ;
#228 = LOCAL_TIME ( 7, 53, 0.0000000000000000000, #144 ) ;
#229 = CIRCLE ( 'NONE', #33, 3.769059892324148731 ) ;
#230 = PERSON_AND_ORGANIZATION ( #235, #170 ) ;
#231 = MECHANICAL_CONTEXT ( 'NONE', #185, 'mechanical' ) ;
#232 = DIRECTION ( 'NONE',  ( -3.598472008923184252E-31, -1.000000000000000000, -1.030643345817079849E-16 ) ) ;
#233 = CONICAL_SURFACE ( 'NONE', #39, 3.769059892324148731, 0.5235987755982978165 ) ;
#234 = ORIENTED_EDGE ( 'NONE', *, *, #239, .T. ) ;
#235 = PERSON ( 'UNSPECIFIED', 'UNSPECIFIED', 'UNSPECIFIED', ('UNSPECIFIED'), ('UNSPECIFIED'), ('UNSPECIFIED') ) ;
#236 = PERSON_AND_ORGANIZATION ( #235, #170 ) ;
#237 = AXIS2_PLACEMENT_3D ( 'NONE', #130, #96, #127 ) ;
#238 = COORDINATED_UNIVERSAL_TIME_OFFSET ( 1, 0, .AHEAD. ) ;
#239 = EDGE_CURVE ( 'NONE', #98, #98, #164, .T. ) ;
#240 = EDGE_LOOP ( 'NONE', ( #105 ) ) ;
#241 = DESIGN_CONTEXT ( 'detailed design', #154, 'design' ) ;
#242 = CARTESIAN_POINT ( 'NONE',  ( 6.787415008490167037E-30, 1.002666072458622150E-30, 1.943992921565809348E-15 ) ) ;
#243 = LOCAL_TIME ( 7, 53, 0.0000000000000000000, #99 ) ;
ENDSEC;
END-ISO-10303-21;
