ISO-10303-21;
HEADER;
FILE_DESCRIPTION (( 'STEP AP203' ),
    '1' );
FILE_NAME ('341848.step',
    '2021-11-26T06:52:59',
    ( '' ),
    ( '' ),
    'SwSTEP 2.0',
    'SolidWorks 2019',
    '' );
FILE_SCHEMA (( 'CONFIG_CONTROL_DESIGN' ));
ENDSEC;

DATA;
#1 = EDGE_LOOP ( 'NONE', ( #147 ) ) ;
#2 = APPROVAL_STATUS ( 'not_yet_approved' ) ;
#3 = AXIS2_PLACEMENT_3D ( 'NONE', #230, #66, #12 ) ;
#4 = PRODUCT_DEFINITION ( 'UNKNOWN', '', #199, #38 ) ;
#5 = APPROVAL_DATE_TIME ( #84, #45 ) ;
#6 = EDGE_LOOP ( 'NONE', ( #174 ) ) ;
#7 = ADVANCED_FACE ( 'NONE', ( #217 ), #85, .T. ) ;
#8 = AXIS2_PLACEMENT_3D ( 'NONE', #17, #181, #211 ) ;
#9 = APPROVAL_PERSON_ORGANIZATION ( #157, #45, #42 ) ;
#10 = EDGE_LOOP ( 'NONE', ( #148 ) ) ;
#11 = DIRECTION ( 'NONE',  ( -1.799410523764621972E-30, 1.000000000000000000, -5.153716572235319891E-16 ) ) ;
#12 = DIRECTION ( 'NONE',  ( -1.783714842110832352E-30, 1.000000000000000000, -5.156405826589385383E-16 ) ) ;
#13 = CARTESIAN_POINT ( 'NONE',  ( 5.680105199773618527E-14, 8.384307249315796146E-15, 16.26846787517318660 ) ) ;
#14 = DIRECTION ( 'NONE',  ( -3.491481338843133355E-15, -5.153716572235319891E-16, -1.000000000000000000 ) ) ;
#15 = ADVANCED_FACE ( 'NONE', ( #75, #161 ), #69, .T. ) ;
#16 = MANIFOLD_SOLID_BREP ( 'Corps-Déplacer/Copier1[1]', #226 ) ;
#17 = CARTESIAN_POINT ( 'NONE',  ( 6.773088982328403658E-30, 9.997642131180998084E-31, 1.939889784595726232E-15 ) ) ;
#18 = PERSON_AND_ORGANIZATION ( #61, #134 ) ;
#19 = PERSON_AND_ORGANIZATION ( #61, #134 ) ;
#20 = EDGE_CURVE ( 'NONE', #234, #234, #156, .T. ) ;
#21 = APPLICATION_CONTEXT ( 'configuration controlled 3d designs of mechanical parts and assemblies' ) ;
#22 = COORDINATED_UNIVERSAL_TIME_OFFSET ( 1, 0, .AHEAD. ) ;
#23 = ADVANCED_FACE ( 'NONE', ( #68 ), #212, .T. ) ;
#24 = SHAPE_DEFINITION_REPRESENTATION ( #133, #135 ) ;
#25 = CALENDAR_DATE ( 2021, 26, 11 ) ;
#26 = ORIENTED_EDGE ( 'NONE', *, *, #208, .T. ) ;
#27 = EDGE_LOOP ( 'NONE', ( #220 ) ) ;
#28 = CC_DESIGN_APPROVAL ( #45, ( #172 ) ) ;
#29 = CARTESIAN_POINT ( 'NONE',  ( 0.0000000000000000000, 0.0000000000000000000, 0.0000000000000000000 ) ) ;
#30 = CARTESIAN_POINT ( 'NONE',  ( 5.680105199773617265E-14, -1.676698816218616772E-15, 16.26846787517318305 ) ) ;
#31 = DIRECTION ( 'NONE',  ( 0.0000000000000000000, 1.000000000000000000, 0.0000000000000000000 ) ) ;
#32 = FACE_OUTER_BOUND ( 'NONE', #228, .T. ) ;
#33 = CYLINDRICAL_SURFACE ( 'NONE', #177, 3.994999999999994333 ) ;
#34 = APPLICATION_PROTOCOL_DEFINITION ( 'international standard', 'config_control_design', 1994, #21 ) ;
#35 = APPROVAL_PERSON_ORGANIZATION ( #19, #204, #112 ) ;
#36 = DIRECTION ( 'NONE',  ( 1.000000000000000000, 0.0000000000000000000, 0.0000000000000000000 ) ) ;
#37 = ORIENTED_EDGE ( 'NONE', *, *, #48, .T. ) ;
#38 = DESIGN_CONTEXT ( 'detailed design', #21, 'design' ) ;
#39 = EDGE_LOOP ( 'NONE', ( #26 ) ) ;
#40 = CIRCLE ( 'NONE', #171, 2.399999999999996358 ) ;
#41 = MECHANICAL_CONTEXT ( 'NONE', #87, 'mechanical' ) ;
#42 = APPROVAL_ROLE ( '' ) ;
#43 = ADVANCED_FACE ( 'NONE', ( #51, #32 ), #33, .T. ) ;
#44 = AXIS2_PLACEMENT_3D ( 'NONE', #113, #81, #152 ) ;
#45 = APPROVAL ( #62, 'UNSPECIFIED' ) ;
#46 = CARTESIAN_POINT ( 'NONE',  ( 5.680105199773616003E-14, 3.994999999999998330, 16.26846787517317949 ) ) ;
#47 = DIRECTION ( 'NONE',  ( -3.491481338843133355E-15, 1.030643345817079849E-16, -1.000000000000000000 ) ) ;
#48 = EDGE_CURVE ( 'NONE', #142, #142, #65, .T. ) ;
#49 = DIRECTION ( 'NONE',  ( -3.491481338843133355E-15, -5.153716572235319891E-16, -1.000000000000000000 ) ) ;
#50 = VERTEX_POINT ( 'NONE', #125 ) ;
#51 = FACE_OUTER_BOUND ( 'NONE', #241, .T. ) ;
#52 = CARTESIAN_POINT ( 'NONE',  ( 3.526396152231565067E-13, 2.399999999999985700, 101.0000000000000000 ) ) ;
#53 = LOCAL_TIME ( 7, 52, 59.00000000000000000, #22 ) ;
#54 = PERSON_AND_ORGANIZATION_ROLE ( 'classification_officer' ) ;
#55 = EDGE_LOOP ( 'NONE', ( #76 ) ) ;
#56 = DATE_TIME_ROLE ( 'classification_date' ) ;
#57 =( NAMED_UNIT ( * ) SI_UNIT ( $, .STERADIAN. ) SOLID_ANGLE_UNIT ( ) );
#58 = AXIS2_PLACEMENT_3D ( 'NONE', #124, #175, #11 ) ;
#59 = ORIENTED_EDGE ( 'NONE', *, *, #20, .F. ) ;
#60 = CARTESIAN_POINT ( 'NONE',  ( 0.0000000000000000000, 3.764059892324148837, 0.0000000000000000000 ) ) ;
#61 = PERSON ( 'UNSPECIFIED', 'UNSPECIFIED', 'UNSPECIFIED', ('UNSPECIFIED'), ('UNSPECIFIED'), ('UNSPECIFIED') ) ;
#62 = APPROVAL_STATUS ( 'not_yet_approved' ) ;
#63 = PRODUCT ( '341848', '341848', '', ( #41 ) ) ;
#64 = EDGE_CURVE ( 'NONE', #111, #111, #118, .T. ) ;
#65 = CIRCLE ( 'NONE', #78, 2.999999999999989786 ) ;
#66 = DIRECTION ( 'NONE',  ( -3.491481338843133355E-15, -5.153716572235319891E-16, -1.000000000000000000 ) ) ;
#67 = DIRECTION ( 'NONE',  ( -3.491481338843133355E-15, 1.030643345817079849E-16, -1.000000000000000000 ) ) ;
#68 = FACE_OUTER_BOUND ( 'NONE', #202, .T. ) ;
#69 = CYLINDRICAL_SURFACE ( 'NONE', #44, 2.999999999999993339 ) ;
#70 = CARTESIAN_POINT ( 'NONE',  ( 3.505447264198505636E-13, 2.999999999999985789, 100.4000000000000057 ) ) ;
#71 = AXIS2_PLACEMENT_3D ( 'NONE', #158, #229, #166 ) ;
#72 = DIRECTION ( 'NONE',  ( 0.0000000000000000000, 1.000000000000000000, 0.0000000000000000000 ) ) ;
#73 = CALENDAR_DATE ( 2021, 26, 11 ) ;
#74 = SECURITY_CLASSIFICATION_LEVEL ( 'unclassified' ) ;
#75 = FACE_OUTER_BOUND ( 'NONE', #10, .T. ) ;
#76 = ORIENTED_EDGE ( 'NONE', *, *, #48, .F. ) ;
#77 = ORIENTED_EDGE ( 'NONE', *, *, #99, .F. ) ;
#78 = AXIS2_PLACEMENT_3D ( 'NONE', #176, #123, #162 ) ;
#79 = COORDINATED_UNIVERSAL_TIME_OFFSET ( 1, 0, .AHEAD. ) ;
#80 = APPROVAL_ROLE ( '' ) ;
#81 = DIRECTION ( 'NONE',  ( -3.491481338843133355E-15, 1.030643345817079849E-16, -1.000000000000000000 ) ) ;
#82 = COORDINATED_UNIVERSAL_TIME_OFFSET ( 1, 0, .AHEAD. ) ;
#83 = AXIS2_PLACEMENT_3D ( 'NONE', #91, #89, #72 ) ;
#84 = DATE_AND_TIME ( #25, #242 ) ;
#85 = PLANE ( 'NONE',  #71 ) ;
#86 = DIRECTION ( 'NONE',  ( 3.491481338843133355E-15, 5.153716572235319891E-16, 1.000000000000000000 ) ) ;
#87 = APPLICATION_CONTEXT ( 'configuration controlled 3d designs of mechanical parts and assemblies' ) ;
#88 = AXIS2_PLACEMENT_3D ( 'NONE', #179, #14, #137 ) ;
#89 = DIRECTION ( 'NONE',  ( -3.491481338843133355E-15, 1.030643345817079849E-16, -1.000000000000000000 ) ) ;
#90 = FACE_BOUND ( 'NONE', #129, .T. ) ;
#91 = CARTESIAN_POINT ( 'NONE',  ( 5.680105199773617265E-14, -1.676698816218616772E-15, 16.26846787517318305 ) ) ;
#92 = DIRECTION ( 'NONE',  ( -3.491481338843133355E-15, 1.030643345817079849E-16, -1.000000000000000000 ) ) ;
#93 = AXIS2_PLACEMENT_3D ( 'NONE', #46, #92, #164 ) ;
#94 = CC_DESIGN_PERSON_AND_ORGANIZATION_ASSIGNMENT ( #18, #238, ( #199 ) ) ;
#95 = CARTESIAN_POINT ( 'NONE',  ( 1.396592535537253539E-15, 3.994999999999998330, 0.4000000000000000222 ) ) ;
#96 = PERSON_AND_ORGANIZATION ( #61, #134 ) ;
#97 = CLOSED_SHELL ( 'NONE', ( #193, #43, #120, #191 ) ) ;
#98 = LOCAL_TIME ( 7, 52, 59.00000000000000000, #184 ) ;
#99 = EDGE_CURVE ( 'NONE', #50, #50, #222, .T. ) ;
#100 = CC_DESIGN_APPROVAL ( #173, ( #4 ) ) ;
#101 = DIRECTION ( 'NONE',  ( 0.0000000000000000000, 0.0000000000000000000, 1.000000000000000000 ) ) ;
#102 = APPROVAL_DATE_TIME ( #201, #173 ) ;
#103 = EDGE_LOOP ( 'NONE', ( #225 ) ) ;
#104 = AXIS2_PLACEMENT_3D ( 'NONE', #13, #108, #192 ) ;
#105 = DIRECTION ( 'NONE',  ( 0.0000000000000000000, 1.000000000000000000, 0.0000000000000000000 ) ) ;
#106 = FACE_OUTER_BOUND ( 'NONE', #240, .T. ) ;
#107 = EDGE_LOOP ( 'NONE', ( #59 ) ) ;
#108 = DIRECTION ( 'NONE',  ( -3.491481338843133355E-15, -5.153716572235319891E-16, -1.000000000000000000 ) ) ;
#109 = LOCAL_TIME ( 7, 52, 59.00000000000000000, #82 ) ;
#110 = PLANE ( 'NONE',  #121 ) ;
#111 = VERTEX_POINT ( 'NONE', #196 ) ;
#112 = APPROVAL_ROLE ( '' ) ;
#113 = CARTESIAN_POINT ( 'NONE',  ( 0.0000000000000000000, 0.0000000000000000000, 0.0000000000000000000 ) ) ;
#114 = ORIENTED_EDGE ( 'NONE', *, *, #99, .T. ) ;
#115 = PERSON_AND_ORGANIZATION_ROLE ( 'creator' ) ;
#116 = CARTESIAN_POINT ( 'NONE',  ( 0.0000000000000000000, 0.0000000000000000000, 0.0000000000000000000 ) ) ;
#117 =( GEOMETRIC_REPRESENTATION_CONTEXT ( 3 ) GLOBAL_UNCERTAINTY_ASSIGNED_CONTEXT ( ( #127 ) ) GLOBAL_UNIT_ASSIGNED_CONTEXT ( ( #146, #144, #57 ) ) REPRESENTATION_CONTEXT ( 'NONE', 'WORKASPACE' ) );
#118 = CIRCLE ( 'NONE', #104, 3.994999999999989893 ) ;
#119 = CONICAL_SURFACE ( 'NONE', #136, 2.999999999999996003, 0.7853981633974453924 ) ;
#120 = ADVANCED_FACE ( 'NONE', ( #178, #194 ), #131, .T. ) ;
#121 = AXIS2_PLACEMENT_3D ( 'NONE', #122, #86, #159 ) ;
#122 = CARTESIAN_POINT ( 'NONE',  ( 5.680105199773616003E-14, 8.384307249315792991E-15, 16.26846787517317949 ) ) ;
#123 = DIRECTION ( 'NONE',  ( -3.491481338843133355E-15, 1.030643345817079849E-16, -1.000000000000000000 ) ) ;
#124 = CARTESIAN_POINT ( 'NONE',  ( -3.386544491164201829E-30, 3.764059892324148837, -9.699448922978631160E-16 ) ) ;
#125 = CARTESIAN_POINT ( 'NONE',  ( 5.680105199773617265E-14, 3.994999999999998330, 16.26846787517318305 ) ) ;
#126 = DIRECTION ( 'NONE',  ( -3.491481338843133355E-15, 1.030643345817079849E-16, -1.000000000000000000 ) ) ;
#127 = UNCERTAINTY_MEASURE_WITH_UNIT (LENGTH_MEASURE( 1.000000000000000082E-05 ), #146, 'distance_accuracy_value', 'NONE');
#128 = CC_DESIGN_DATE_AND_TIME_ASSIGNMENT ( #219, #56, ( #172 ) ) ;
#129 = EDGE_LOOP ( 'NONE', ( #37 ) ) ;
#130 = VERTEX_POINT ( 'NONE', #95 ) ;
#131 = CONICAL_SURFACE ( 'NONE', #8, 3.764059892324148837, 0.5235987755982978165 ) ;
#132 = CC_DESIGN_DATE_AND_TIME_ASSIGNMENT ( #149, #221, ( #4 ) ) ;
#133 = PRODUCT_DEFINITION_SHAPE ( 'NONE', 'NONE',  #4 ) ;
#134 = ORGANIZATION ( 'UNSPECIFIED', 'UNSPECIFIED', '' ) ;
#135 = ADVANCED_BREP_SHAPE_REPRESENTATION ( '341848', ( #16, #180, #206 ), #117 ) ;
#136 = AXIS2_PLACEMENT_3D ( 'NONE', #232, #67, #138 ) ;
#137 = DIRECTION ( 'NONE',  ( -1.799410523764621972E-30, 1.000000000000000000, -5.153716572235320877E-16 ) ) ;
#138 = DIRECTION ( 'NONE',  ( 0.0000000000000000000, 1.000000000000000000, 0.0000000000000000000 ) ) ;
#139 = PLANE ( 'NONE',  #58 ) ;
#140 = CONICAL_SURFACE ( 'NONE', #83, 3.995000000000000107, 0.5235987755982933756 ) ;
#141 = CC_DESIGN_SECURITY_CLASSIFICATION ( #172, ( #199 ) ) ;
#142 = VERTEX_POINT ( 'NONE', #213 ) ;
#143 = DIRECTION ( 'NONE',  ( -3.491481338843133355E-15, 1.030643345817079849E-16, -1.000000000000000000 ) ) ;
#144 =( NAMED_UNIT ( * ) PLANE_ANGLE_UNIT ( ) SI_UNIT ( $, .RADIAN. ) );
#145 = ADVANCED_FACE ( 'NONE', ( #90, #106 ), #140, .T. ) ;
#146 =( LENGTH_UNIT ( ) NAMED_UNIT ( * ) SI_UNIT ( .MILLI., .METRE. ) );
#147 = ORIENTED_EDGE ( 'NONE', *, *, #154, .F. ) ;
#148 = ORIENTED_EDGE ( 'NONE', *, *, #20, .T. ) ;
#149 = DATE_AND_TIME ( #203, #98 ) ;
#150 = DATE_AND_TIME ( #73, #109 ) ;
#151 = CC_DESIGN_APPROVAL ( #204, ( #199 ) ) ;
#152 = DIRECTION ( 'NONE',  ( 3.598472008923184252E-31, 1.000000000000000000, 1.030643345817079726E-16 ) ) ;
#153 = ORIENTED_EDGE ( 'NONE', *, *, #154, .T. ) ;
#154 = EDGE_CURVE ( 'NONE', #216, #216, #40, .T. ) ;
#155 = CARTESIAN_POINT ( 'NONE',  ( 3.505447264198505636E-13, -1.034765919200348261E-14, 100.4000000000000057 ) ) ;
#156 = CIRCLE ( 'NONE', #186, 2.999999999999996003 ) ;
#157 = PERSON_AND_ORGANIZATION ( #61, #134 ) ;
#158 = CARTESIAN_POINT ( 'NONE',  ( 3.526396152231565067E-13, -1.040949779275250653E-14, 101.0000000000000000 ) ) ;
#159 = DIRECTION ( 'NONE',  ( 1.799410523764621972E-30, -1.000000000000000000, 5.153716572235319891E-16 ) ) ;
#160 = FACE_OUTER_BOUND ( 'NONE', #107, .T. ) ;
#161 = FACE_OUTER_BOUND ( 'NONE', #55, .T. ) ;
#162 = DIRECTION ( 'NONE',  ( 0.0000000000000000000, 1.000000000000000000, 0.0000000000000000000 ) ) ;
#163 = FACE_BOUND ( 'NONE', #185, .T. ) ;
#164 = DIRECTION ( 'NONE',  ( 3.598472008923184252E-31, 1.000000000000000000, 1.030643345817079849E-16 ) ) ;
#165 = PERSON_AND_ORGANIZATION ( #61, #134 ) ;
#166 = DIRECTION ( 'NONE',  ( -3.598472008923184252E-31, -1.000000000000000000, -1.030643345817079849E-16 ) ) ;
#167 = ORIENTED_EDGE ( 'NONE', *, *, #64, .T. ) ;
#168 = CC_DESIGN_PERSON_AND_ORGANIZATION_ASSIGNMENT ( #96, #54, ( #172 ) ) ;
#169 = CALENDAR_DATE ( 2021, 26, 11 ) ;
#170 = CC_DESIGN_PERSON_AND_ORGANIZATION_ASSIGNMENT ( #165, #239, ( #199 ) ) ;
#171 = AXIS2_PLACEMENT_3D ( 'NONE', #233, #126, #237 ) ;
#172 = SECURITY_CLASSIFICATION ( '', '', #74 ) ;
#173 = APPROVAL ( #187, 'UNSPECIFIED' ) ;
#174 = ORIENTED_EDGE ( 'NONE', *, *, #210, .F. ) ;
#175 = DIRECTION ( 'NONE',  ( -3.491481338843133355E-15, -5.153716572235319891E-16, -1.000000000000000000 ) ) ;
#176 = CARTESIAN_POINT ( 'NONE',  ( 6.281823795492844412E-14, -1.854318916842698141E-15, 17.99185842870425489 ) ) ;
#177 = AXIS2_PLACEMENT_3D ( 'NONE', #29, #49, #209 ) ;
#178 = FACE_OUTER_BOUND ( 'NONE', #39, .T. ) ;
#179 = CARTESIAN_POINT ( 'NONE',  ( 6.773088982328403658E-30, 9.997642131180998084E-31, 1.939889784595726232E-15 ) ) ;
#180 = MANIFOLD_SOLID_BREP ( 'Corps-Déplacer/Copier1[2]', #97 ) ;
#181 = DIRECTION ( 'NONE',  ( 3.491481338843133355E-15, 5.153716572235319891E-16, 1.000000000000000000 ) ) ;
#182 = APPROVAL_DATE_TIME ( #150, #204 ) ;
#183 = PERSON_AND_ORGANIZATION_ROLE ( 'design_owner' ) ;
#184 = COORDINATED_UNIVERSAL_TIME_OFFSET ( 1, 0, .AHEAD. ) ;
#185 = EDGE_LOOP ( 'NONE', ( #153 ) ) ;
#186 = AXIS2_PLACEMENT_3D ( 'NONE', #155, #143, #31 ) ;
#187 = APPROVAL_STATUS ( 'not_yet_approved' ) ;
#188 = APPROVAL_PERSON_ORGANIZATION ( #223, #173, #80 ) ;
#189 = PRODUCT_RELATED_PRODUCT_CATEGORY ( 'detail', '', ( #63 ) ) ;
#190 = CIRCLE ( 'NONE', #3, 3.994999999999998330 ) ;
#191 = ADVANCED_FACE ( 'NONE', ( #214 ), #139, .T. ) ;
#192 = DIRECTION ( 'NONE',  ( -3.085344591759284133E-30, 1.000000000000000000, -8.684472971097929454E-16 ) ) ;
#193 = ADVANCED_FACE ( 'NONE', ( #195 ), #110, .T. ) ;
#194 = FACE_BOUND ( 'NONE', #6, .T. ) ;
#195 = FACE_OUTER_BOUND ( 'NONE', #27, .T. ) ;
#196 = CARTESIAN_POINT ( 'NONE',  ( 5.680105199773617265E-14, 3.994999999999998330, 16.26846787517318305 ) ) ;
#197 = PERSON_AND_ORGANIZATION ( #61, #134 ) ;
#198 = CIRCLE ( 'NONE', #88, 3.764059892324148837 ) ;
#199 = PRODUCT_DEFINITION_FORMATION_WITH_SPECIFIED_SOURCE ( 'ANY', '', #63, .NOT_KNOWN. ) ;
#200 = VERTEX_POINT ( 'NONE', #60 ) ;
#201 = DATE_AND_TIME ( #169, #227 ) ;
#202 = EDGE_LOOP ( 'NONE', ( #114 ) ) ;
#203 = CALENDAR_DATE ( 2021, 26, 11 ) ;
#204 = APPROVAL ( #2, 'UNSPECIFIED' ) ;
#205 = APPLICATION_PROTOCOL_DEFINITION ( 'international standard', 'config_control_design', 1994, #87 ) ;
#206 = AXIS2_PLACEMENT_3D ( 'NONE', #116, #101, #36 ) ;
#207 = ORIENTED_EDGE ( 'NONE', *, *, #208, .F. ) ;
#208 = EDGE_CURVE ( 'NONE', #130, #130, #190, .T. ) ;
#209 = DIRECTION ( 'NONE',  ( -1.799410523764621622E-30, 1.000000000000000000, -5.153716572235319891E-16 ) ) ;
#210 = EDGE_CURVE ( 'NONE', #200, #200, #198, .T. ) ;
#211 = DIRECTION ( 'NONE',  ( 1.799410523764621972E-30, -1.000000000000000000, 5.153716572235320877E-16 ) ) ;
#212 = PLANE ( 'NONE',  #93 ) ;
#213 = CARTESIAN_POINT ( 'NONE',  ( 6.281823795492844412E-14, 2.999999999999988010, 17.99185842870425489 ) ) ;
#214 = FACE_OUTER_BOUND ( 'NONE', #103, .T. ) ;
#215 = CC_DESIGN_PERSON_AND_ORGANIZATION_ASSIGNMENT ( #218, #183, ( #63 ) ) ;
#216 = VERTEX_POINT ( 'NONE', #52 ) ;
#217 = FACE_OUTER_BOUND ( 'NONE', #1, .T. ) ;
#218 = PERSON_AND_ORGANIZATION ( #61, #134 ) ;
#219 = DATE_AND_TIME ( #243, #53 ) ;
#220 = ORIENTED_EDGE ( 'NONE', *, *, #64, .F. ) ;
#221 = DATE_TIME_ROLE ( 'creation_date' ) ;
#222 = CIRCLE ( 'NONE', #235, 3.995000000000000107 ) ;
#223 = PERSON_AND_ORGANIZATION ( #61, #134 ) ;
#224 = COORDINATED_UNIVERSAL_TIME_OFFSET ( 1, 0, .AHEAD. ) ;
#225 = ORIENTED_EDGE ( 'NONE', *, *, #210, .T. ) ;
#226 = CLOSED_SHELL ( 'NONE', ( #7, #236, #15, #145, #23 ) ) ;
#227 = LOCAL_TIME ( 7, 52, 59.00000000000000000, #79 ) ;
#228 = EDGE_LOOP ( 'NONE', ( #207 ) ) ;
#229 = DIRECTION ( 'NONE',  ( 3.491481338843133355E-15, -1.030643345817079849E-16, 1.000000000000000000 ) ) ;
#230 = CARTESIAN_POINT ( 'NONE',  ( 1.396592535537260639E-15, 2.061486628894138655E-16, 0.4000000000000020761 ) ) ;
#231 = CC_DESIGN_PERSON_AND_ORGANIZATION_ASSIGNMENT ( #197, #115, ( #4 ) ) ;
#232 = CARTESIAN_POINT ( 'NONE',  ( 3.505447264198505636E-13, -1.034765919200348261E-14, 100.4000000000000057 ) ) ;
#233 = CARTESIAN_POINT ( 'NONE',  ( 3.526396152231565067E-13, -1.040949779275250653E-14, 101.0000000000000000 ) ) ;
#234 = VERTEX_POINT ( 'NONE', #70 ) ;
#235 = AXIS2_PLACEMENT_3D ( 'NONE', #30, #47, #105 ) ;
#236 = ADVANCED_FACE ( 'NONE', ( #163, #160 ), #119, .T. ) ;
#237 = DIRECTION ( 'NONE',  ( 0.0000000000000000000, 1.000000000000000000, 0.0000000000000000000 ) ) ;
#238 = PERSON_AND_ORGANIZATION_ROLE ( 'creator' ) ;
#239 = PERSON_AND_ORGANIZATION_ROLE ( 'design_supplier' ) ;
#240 = EDGE_LOOP ( 'NONE', ( #77 ) ) ;
#241 = EDGE_LOOP ( 'NONE', ( #167 ) ) ;
#242 = LOCAL_TIME ( 7, 52, 59.00000000000000000, #224 ) ;
#243 = CALENDAR_DATE ( 2021, 26, 11 ) ;
ENDSEC;
END-ISO-10303-21;
